Home » N » Notorious Big »

Notorious Big - Big Poppa Bass

Artists:  A B C D E F G H I J K L M N O P Q R S T U V W X Y Z # 

Big Poppa Bass

(ver. 1) Click to play this song!
Notorious Big
Album:Ready to Die  

G-------------------|
D-------------------|
A-------------3-----|
E-22-01--5-43-------|

G-------------------|
D-------------------|
A-------------3-----|
E-22-01--5-43-------|

G-------------------|
D-------------------|
A-22----------3-----|
E----01--5-43-------|

G-------------------|
D-------------------|
A-22----------------|
E----01-------------|
            
Submit corrections

↑ Back to top | Tablatures and chords for acoustic guitar and electric guitar, ukulele, drums are parodies/interpretations of the original songs. You may use it for private study, scholarship, research or language learning purposes only