» » »

Notorious Big - Juicy Tabs

Artists:  A B C D E F G H I J K L M N O P Q R S T U V W X Y Z # 

Juicy Tabs

(ver. 1) Click to play this song!
Notorious Big
 Rating:
4/5 (4 votes)

 Juicy lessons Tabs too difficult? Try these video lessons and learn fast
 
                -------------------------------------------------------------------------------
                             Juicy - Notorious B.I.G.
-------------------------------------------------------------------------------


Tuning: Standard

Intro
e|----4---4----4----4----4----4----4----4|---4---4---4---4---4---4---2---2---|
B|---5---5----5----5----5----5----5----5-|--5---5---5---5---5---5---4---4----|
G|--6---6----6----6----6----6----6----6--|-6---6---6---6---6---6---4---4-----|
D|-----7---------7---------7---------7---|----7-------7-------7-------2------|
A|-0--------0---------0---------0--------|0-------0-------0------------------|
E|---------------------------------------|------------------------4----------|

(break)
e|---4---4---4---4---4---4---4---4|---4---4---5---5---4---4---2---2----------|
B|--5---5---5---5---5---5---5---5-|--5---5---7---7---5---5---4---4-----------|
G|-6---6---6---6---6---6---6---6--|-6---6---6---6---6---6---4---4------------|
D|----7-------7-------7-------7---|----7-------7-------7-------2-------------|
A|0-------0-------0-------0-------|0-------0-------0-------------------------|
E|--------------------------------|------------------------4-----------------|

Verse:
e|4---------------|4-------------2-|-4----------|-4--5---4-2-----------------|
B|----------------|--------------4-|-2----------|-2--7---2-4-----------------|
G|4---------------|4-------------4-|-2----------|-2--6---2-4-----------------|
D|----------------|----------------|-----------4|------------4---------------|
A|------0-2-4-----|------0-2-4----2|-0-0--------|-0-0------------------------|
E|0^2-4-------0--0|0^2-4-------0---|-----000-2--|----000-2-------------------|
            
Submit corrections


        Juicy lessons Hard to play? Try these video lessons and learn fast Juicy lessons
        
↑ Back to top | Tablatures and chords for acoustic guitar and electric guitar, ukulele, drums are parodies/interpretations of the original songs. You may use it for private study, scholarship, research or language learning purposes only