Home » N » Notorious Big »

Notorious Big - Juicy Bass

Artists:  A B C D E F G H I J K L M N O P Q R S T U V W X Y Z # 

Juicy Bass

(ver. 2) Click to play this song!
Notorious Big
"Juicy"
sampled from "Juicy Fruit" by Mtume

100% accurate

G---------------------------------------|
D---------------------------------------|
A--------0h2-4-------------0h2-4----2---|
E--0-2h4--------2----0-2h4--------------|

G---------------------------------|
D------------4p-------------------|
A--0-0-------------0-0---------2--|
E------0-0-2-----------0-0-2------|

repeat throughout
            
Submit corrections

↑ Back to top | Tablatures and chords for acoustic guitar and electric guitar, ukulele, drums are parodies/interpretations of the original songs. You may use it for private study, scholarship, research or language learning purposes only