» » »

Northstar - Rigged & Ready Tabs

Artists:  A B C D E F G H I J K L M N O P Q R S T U V W X Y Z # 

Rigged & Ready Tabs

(ver. 3) Click to play this song!
Northstar
 Rating:
4/5 (4 votes)

 Rigged & Ready lessons Tabs too difficult? Try these video lessons and learn fast
 
                Tuning is dropped-D
This is an awesome band

This is all i have so far ill come back later with the rest, but atleast i have both guitar parts

Intro

guitar 1:clean
e--------------------------------------------------------------------------------
B--------------------------------------------------------------------------------
G-------------------------------------------------------------------------------- X4
D-----0--2-----2--4-----4-------4/7----------7-------7-------7-------7-------7---    
A---0---------0-----2-2---2-0-0------0-0---0---0---0---0---0---0---0---0---0-----
D-0---------0----------------------------0-------0-------0-------0-------0-------

Guitar 2:distorted
e-------------------------------------------------------------------------------
B-------------------------------------------------------------------------------
G------2--------------------2---------------------2---------------------2---2---
D-2/4---4--2--4--2--0--2--4---4--2--0---------2/4---4--2--4--2--0--2--4---4-----
A-------------------------------------------------------------------------------
D-------------------------------------------------------------------------------

e-------------------------------------------------------------------------------
B-------------------------------------------------------------------------------
G-----2---------------------2---------------------2--------------------------------
D-2/4---4--2--4--2--0--2--4---4--2--0---------2/4---4--2--0------------------------
A-------------------------------------------------------------------------------
D-------------------------------------------------------------------------------


Verse(only first part....sry)

guitar one:
e----------------
B----------------
G----------------
D-x-x-x-x-x-x-x-x  See song for how long you do that
A-x-x-x-x-x-x-x-x
D-x-x-x-x-x-x-x-x

guitar two
-
e----------------------------------------------------------------------------
B----------------------------------------------------------------------------
G----------------------------------------------------------------------------
D-9-9-9-9-9--------7-7-7-7-7--------12-12-12-12-12--------5-5-5-5-5----------
A-9-9-9-9-9--------7-7-7-7-7--------12-12-12-12-12--------5-5-5-5-5----------
D-9-9-9-9-9--------7-7-7-7-7--------12-12-12-12-12--------5-5-5-5-5----------

ill come back with the rest of it later
            
Submit corrections


        Rigged & Ready lessons Hard to play? Try these video lessons and learn fast Rigged & Ready lessons
        
↑ Back to top | Tablatures and chords for acoustic guitar and electric guitar, ukulele, drums are parodies/interpretations of the original songs. You may use it for private study, scholarship, research or language learning purposes only