» » »

Northstar - Rigged & Ready Tabs

Artists:  A B C D E F G H I J K L M N O P Q R S T U V W X Y Z # 

Rigged & Ready Tabs

(ver. 2) Click to play this song!
Northstar
 Rating:
4/5 (4 votes)

 Rigged & Ready lessons Tabs too difficult? Try these video lessons and learn fast
 
                These guys ***ing rock, if this goes well i will be putting up other songs by them.  This is my first tab ever so be gentle.

Intro: I will add it later on...

After Intro:

"It's winter and i'm late, i lost, this game..." [play lightly]
--------------------------------------------
--------------------------------------------
-------------------77777--------------------
-----99999--77777--77777--55555-------------
-----99999--77777--55555--55555-------------
-----77777--55555---------33333------------- Repeat X4

Next...

"I never, fixed my broken Jaw..."
-----------------------------------------------
-----------------------------------------------
-------------------------7-7-7-7---------------
-----9-9-9-9---7-7-7-7---7-7-7-7---5-5-5-5-----
-----9-9-9-9---7-7-7-7---5-5-5-5---5-5-5-5-----
-----7-7-7-7---5-5-5-5-------------3-3-3-3----- Repeat X2

Then...

"So when you come out, fix another for me...."
---------------------------------------------
---------------------------------------------
-----------------------77-7-77---------------
-----99-9-99--77-7-77--77-7-77--55-5-55------
-----99-9-99--77-7-77--55-5-55--55-5-55------
-----77-7-77--55-5-55-----------33-3-33------ Repeat X2

Next...

"I Wish i was missing...."
------------------------------------------
------------------------------------------
------------------------------------------
-----9-9-9-9-9--7-7-7-7-7----5-<----------
-----9-9-9-9-9--7-7-7-7-7----5-<-x15------
-----7-7-7-7-7--5-5-5-5-5----3-<----------

Then...

------------------------------------------------
------------------------------------------------
-------------------------9---11--9--7-----------
-----999999-9--7--4--5---7---11--7--7-----------
-----999999-9--7--4--5---7---9---7--5-----------
-----777777-7--5--2--3--------------------------

Next...

-----------------------------
----------------------------- 
--------------------77-7-77--
--X-X-X-X-99-9-9-9--77-7-77--
--X-X-X-X-99-9-9-9--55-5-55--
--X-X-X-X-77-7-7-7-----------

Then...

------- 
-------
--7---- This is the background riff.  Let it ring.
--7---- I will get the other guitar line for this part up soon
--5----
-------

Then...

"I wish I was never ever here..."
-------------
-------------
-------------
-5-<------7--
-5-<-x15--7--
-3-<------5--

then....

"and i don't know, what's buried here..."

------------------|----------------
------------------|--End with:-----
------------------|--7-------------
--9---7---5---7---|--7-------------
--9---7---5---7---|--5--[Let ring]- 
--7---5---3---5---|----------------
^Repeat X4 [Check song for strumming]

Then

"Raccoon eyed..."
--------------------------------------------
--------------------------------------------
-------------------77777--------------------
-----99999--77777--77777--55555-------------
-----99999--77777--55555--55555-------------
-----77777--55555---------33333------------- Repeat X4

Next...

"I'll never, kiss a broken Jaw..."
-----------------------------------------------
-----------------------------------------------
-------------------------7-7-7-7---------------
-----9-9-9-9---7-7-7-7---7-7-7-7---5-5-5-5-----
-----9-9-9-9---7-7-7-7---5-5-5-5---5-5-5-5-----
-----7-7-7-7---5-5-5-5-------------3-3-3-3----- Repeat X2

Then...

"So when you come out, fix another for me...."
---------------------------------------------
---------------------------------------------
-----------------------77-7-77---------------
-----99-9-99--77-7-77--77-7-77--55-5-55------
-----99-9-99--77-7-77--55-5-55--55-5-55------
-----77-7-77--55-5-55-----------33-3-33------ Repeat X2

Next...

"I Wish i was missing...."
------------------------------------------
------------------------------------------
------------------------------------------
-----9-9-9-9-9--7-7-7-7-7----5-<----------
-----9-9-9-9-9--7-7-7-7-7----5-<-x15------
-----7-7-7-7-7--5-5-5-5-5----3-<----------

Then...

------------------------------------------------
------------------------------------------------
-------------------------9---11--9--7-----------
-----999999-9--7--4--5---7---11--7--7-----------
-----999999-9--7--4--5---7---9---7--5-----------
-----777777-7--5--2--3--------------------------

Next...

-----------------------------
----------------------------- 
--------------------77-7-77--
--X-X-X-X-99-9-9-9--77-7-77--
--X-X-X-X-99-9-9-9--55-5-55--
--X-X-X-X-77-7-7-7-----------

Then...

------- 
-------
--7---- This is the background riff.  Let it ring.
--7---- I will get the other guitar line for this part up soon
--5----
-------

Then...

"I wish I was never ever here..."
-------------
-------------
-------------
-5-<------7--
-5-<-x15--7--
-3-<------5--

then....

"and i don't know, what's buried here..."

------------------|----------------
------------------|--End with:-----
------------------|--7-------------
--9---7---5---7---|--7-------------
--9---7---5---7---|--5--[Let ring]- 
--7---5---3---5---|----------------
^Repeat X4 [Check song for strumming]


"Dodging, broken down..."
--------------------
--------------------
-------77------77---
--99---77--99--77---
--99---55--99--55---
--77-------77-------


------------------------
------------------------
---------77--77---
-99--99--77--77---
-99--99--55--55---
-77--77--------------Repeat X4

Ending:

-----------------------------------------------------------
------------------------------------------------------------
-------------------------------------------Then:------------
--9------7------5------7---------------------------7----99--
--9------7------3------7---------------------------7----99--
--7------5------3------5--See song for strumming---5----77--

Think thats right.  I will update it as i get time to do so.  Enjoy!
            
Submit corrections


        Rigged & Ready lessons Hard to play? Try these video lessons and learn fast Rigged & Ready lessons
        
↑ Back to top | Tablatures and chords for acoustic guitar and electric guitar, ukulele, drums are parodies/interpretations of the original songs. You may use it for private study, scholarship, research or language learning purposes only