» » »

Northstar - Rigged & Ready Bass

Artists:  A B C D E F G H I J K L M N O P Q R S T U V W X Y Z # 

Rigged & Ready Bass

(ver. 1) Click to play this song!
Northstar
 Rating:
4/5 (4 votes)

 Rigged & Ready lessons Tabs too difficult? Try these video lessons and learn fast
 
                Intro
G|---------------------------------------------------------------------------|
D|---------------------------------------------------------------------------|
A|5~-------5~----------------------------------------------------------------|
E|---7~-5~----3~-------------------------------------------------------------|

Verse
G|---------------------------------------------------------------------------|
D|------------------------------------------4h5-4----------------------------|
A|22222-------55555-------x4-2222---4h5-4-55---------x2----------------------|
E|------55555-------33333---------55-------------3333------------------------|

Part 1 
G|---------------------------------------------------------------------------|
D|---------------------------------------------------------------------------|
A|22222222---------555555555----5-4-0----------------------------------------|
E|---------55555555---------3333---------------------------------------------|

Part 2 (I wish i was missing...)
G|---------------------------------------------------------------------------|
D|---------------------------------------------------------------------------|
A|22222----------------------------------------------------------------------|
E|------55555-333333333------------------------------------------------------|

Part 3
G|------4-2------------------------------------------------------------------|
D|---------4/7-4-5-4-0---4-0~------------------------------------------------|
A|222222---------------------------------------------------------------------|
E|---------------------------------------------------------------------------|

Part 4
G|---------------------------------------------------------------------------|
D|00000000-------2-------------2-4-2-0---------------------------------------|
A|--------0000000-22222222-0000----------------------------------------------|
E|---------------------------------------------------------------------------|

Part 5 (I wish i was never ever here...)
G|---------------------------------------------------------------------------|
D|---------------------------------------------------------------------------|
A|---------------------------------------------------------------------------|
E|3*-5-----------------------------------------------------------------------|

Part 6
G|---------------------------------------------------------------------------|
D|---------------------------------------------------------------------------|
A|22222222-----------------------------x2------------------------------------|
E|---------555555555-33333333-555555555--------------------------------------|

Part 7
G|---------------------------------------------------------------------------|
D|----4----------------------------------------------------------------------|
A|2-2---2----7------5----7---5~----------------------------------------------|
E|---------5---5-3-3-3-5---5-------------------------------------------------|

Okay, After you play that whole hting once, play it agian in the same order.
Then this part comes in.

Part 8 (dodging broken down satelites...)
G|---------------------------------------------------------------------------|
D|---------------------------------------------------------------------------|
A|22-55-x2-22-22-00-55-55-00-x4----------------------------------------------|
E|---------------------------------------------------------------------------|

Wow..that took a while. This song is a little tricky, so watch out. 
This is an awesome song, so have fun!
            
Submit corrections


        Rigged & Ready lessons Hard to play? Try these video lessons and learn fast Rigged & Ready lessons
        
↑ Back to top | Tablatures and chords for acoustic guitar and electric guitar, ukulele, drums are parodies/interpretations of the original songs. You may use it for private study, scholarship, research or language learning purposes only