» » »

Norma Jean - Blueprints For Future Homes Tabs

Artists:  A B C D E F G H I J K L M N O P Q R S T U V W X Y Z # 

Blueprints For Future Homes Tabs

(ver. 2) Click to play this song!
Norma Jean
 Rating:
4.6/5 (10 votes)

 Blueprints For Future Homes lessons Tabs too difficult? Try these video lessons and learn fast
 
                blueprints for future homes
Norma Jean


only one of the guitars does the high part but i think they both do the 2's
Eb|---------------------------------------|
Bb|-000-000--000-000---000-000--000-000---|
Gb|-333-333--333-333---333-333--333-333---|
Db|2---2---22---2---222---2---22---2---22-|
Ab|2---2---22---2---222---2---22---2---22-|
Db|2---2---22---2---222---2---22---2---22-|

G1
Eb|-----------------|
Bb|-----------------|
Gb|12--9-----11--12-|
Db|x---9-----x---x--|
Ab|10--------9---10-|
Db|-----------------|
|
G2
Eb|------------------|
Bb|------------------|
Gb|------------------|
Db|5~--2~----0~--10~-|
Ab|5~--2~----0~--10~-|
Db|5~--2~----0~--10~-|

G1
Eb|-----------------------------------------|
Bb|-------------12-------12----12-----------|
Gb|--12-9---9---------------11----11h12-----|
Db|9------9---9----9-12------------------12-|
Ab|-----------------------------------------|
Db|-----------------------------------------|
|
G2
Eb|----------------------------|
Bb|----------------------------|
Gb|----------------------------|
Db|2~----------------0~----10~-|
Ab|2~----------------0~----10~-|
Db|2~----------------0~----10~-|

G1
Eb|---------------------|
Bb|--------121212121212-|
Gb|99999999111112121212
Db|99999999-x-x-x-x-x-x
Ab|77777777-9-910101010
Db|--------------------
|
G2
Eb|---------------------|
Bb|---------------------|
Gb|---------------------|
Db|222222220000010101010
Ab|222222220000010101010
Db|222222220000010101010

G1
Eb|----------------------------------|
Bb|----------------------------------|
Gb|----12------11-------12------11---|
Db|2-0--x-0-2-0-x-0-2-0--x-0-2-0-x-0-|
Ab|2-0-10-0-2-0-9-0-2-0-10-0-2-0-9-0-|
Db|2-0----0-2-0---0-2-0----0-2-0---0-|
|
G2
Eb|----------------------------------|
Bb|----------------------------------|
Gb|----------------------------------|
Db|2-0-5-0-2-0-1010-2-0-5-0-2-0-1010-|
Ab|2-0-5-0-2-0-1010-2-0-5-0-2-0-1010-|
Db|2-0-5-0-2-0-1010-2-0-5-0-2-0-1010-|

G1
Eb|----------------------------------------------------|
Bb|5-5-5-5-5-5-5-5-5-5-5---------------5-5-5-5-5-5-5-5-|
Gb|--------4-4-4-4-4-4-4-7-7-7-5-5-5-5-4-4-4-4-4-4-4-4-|(Mainly play the 4's
Db|----------------------------------------------------|   when doing both
Ab|----------------------------------------------------|    notes)
Db|----------------------------------------------------|
|
G2
Eb|-----------------------------------------------------|
Bb|-----------------------------------------------------|
Gb|-----------------------------------------------------|
Db|1010101010----101010/121212-1010101010----101010p000-|
Ab|1010101010----101010/121212-1010101010----101010p000-|
Db|1010101010----101010/121212-1010101010----101010p000-|


G1
Eb|---------------------------------|
Bb|---------------------------------|
Gb|----12------1111----12------1111-|
Db|2-0--x-0-2-0-x-x2-0--x-0-2-0-x-x-|
Ab|2-0-10-0-2-0-9-92-0-10-0-2-0-9-9-|
Db|2-0----0-2-0----2-0----0-2-0-----|
|
G2
Eb|----------------------------------|
Bb|----------------------------------|
Gb|----------------------------------|
Db|2-0-5-0-2-0-1010-2-0-5-0-2-0-1010-|
Ab|2-0-5-0-2-0-1010-2-0-5-0-2-0-1010-|
Db|2-0-5-0-2-0-1010-2-0-5-0-2-0-1010-|

G1
Eb|----------------------------------------------------|
Bb|5-5-5-5-5-5-5-5-5-5-5---------------5-5-5-5-5-5-5-5-|
Gb|--------4-4-4-4-4-4-4-7-7-7-5-5-5-5-4-4-4-4-4-4-4-4-|(Mainly play the 4's
Db|----------------------------------------------------|   when doing both
Ab|----------------------------------------------------|    notes)
Db|----------------------------------------------------|
|
G2
Eb|-----------------------------------------------------|
Bb|-----------------------------------------------------|
Gb|-----------------------------------------------------|
Db|1010101010----101010/121212-1010101010----101010p000-|
Ab|1010101010----101010/121212-1010101010----101010p000-|
Db|1010101010----101010/121212-1010101010----101010p000-|

G1
Eb|----------------
Bb|5555555555555555
Gb|----------------|
Db|----------------|
Ab|----------------|
Db|----------------|

both except for high part.
Eb|---------------------------------------|
Bb|-000-000--000-000---000-000--000-000---|
Gb|-333-333--333-333---333-333--333-333---|
Db|2---2---22---2---222---2---22---2---22-|
Ab|2---2---22---2---222---2---22---2---22-|
Db|2---2---22---2---222---2---22---2---22-|

G1
Eb|---------------------|
Bb|--------121212121212-|
Gb|99999999111112121212
Db|99999999-x-x-x-x-x-x
Ab|77777777-9-910101010
Db|--------------------
|
G2
Eb|---------------------|
Bb|---------------------|
Gb|---------------------|
Db|222222220000010101010
Ab|222222220000010101010
Db|222222220000010101010


G1
Eb|33333333333333333333333333333333333333
Bb|55555555555555555555555555555555555555 (or 0's instead of the 5's)
Gb|--------------------------------------|
Db|--------------------------------------|
Ab|--------------------------------------|
Db|--------------------------------------|
|
G2
Eb|---------------------------------------|
Bb|---------------------------------------|
Gb|---------------------------------------|
Db|2---2---22---2---222---2---22---2---22-|
Ab|2---2---22---2---222---2---22---2---22-|
Db|2-/82-/822-/82-/8222-/82-/822-/82-/822-|

G1
Eb|33333333333333333333333333333333333333
Bb|55555555555555555555555555555555555555 (or 0's instead of the 5's)
Gb|--------------------------------------|
Db|--------------------------------------|
Ab|--------------------------------------|
Db|--------------------------------------|
|
G2
Eb|------------------------------------------------|
Bb|------------------------------------------------|
Gb|------------------------------------------------|
Db|2-55-2-55-22-55-2-55-222-55-2-55-22-55-2-55-222-|
Ab|2-55-2-55-22-55-2-55-222-55-2-55-22-55-2-55-222-|
Db|2-55-2-55-22-55-2-55-222-55-2-55-22-55-2-55-222-|
     ..   ..    ..   ..     ..   ..    ..   ..

Eb|-7-7-7-7--|
Bb|-5-5-5-5--|
Gb|----------|
Db|----------|
Ab|----------|
Db|0-0-0-0-0-|

chorus again


Eb|-------------|
Bb|-000-000-----|
Gb|-333-333-----|
Db|2---2--------|
Ab|2---2---2222-|
Db|2---2---2222-|
           ....
G1
Eb|-----------------------------------------------------------------------|
Bb|-----------------------------------------------------------------------|
Gb|16--16--16--16--16--16--16--16--16--16--16--16--16--16--16--16--16--16-|
Db|-x---x---x---x---x---x---x---x---x---x---x---x---x---x---x---x---x---x-|
Ab|14--14--14--14--14--14--14--14--14--14--14--14--14--14--14--14--14--14-|
Db|-----------------------------------------------------------------------|
|
G2
Eb|------------------------------------------------------------------------|
Bb|------------------------------------------------------------------------|
Gb|----12-------12-------12-------12-------12-------12-------12-------1212-|
Db|2-0--x-0-2-0--x-0-2-0--x-0-2-0--x-0-2-0--x-0-2-0--x-0-2-0--x-0-2-0--x-x-|
Ab|2-0-10-0-2-0-10-0-2-0-10-0-2-0-10-0-2-0-10-0-2-0-10-0-2-0-10-0-2-0-1010-|
Db|2-0----0-2-0----0-2-0----0-2-0----0-2-0----0-2-0----0-2-0----0-2-0------|

G1
Eb|3---3---3---3---3---3-|
Bb|0-0-0-0-0-0-0-0-0-0-0-|  just mess around with stuff like that
Gb|--3---3---3---3---3---|
Db|----------------------|
Ab|----------------------|
Db|----------------------|
|
G2
Eb|-----------------------|
Bb|-----------------------|
Gb|-----------------------|
Db|2----22----222----22---|
Ab|2----22----222----22---|
Db|2\0--22\0--222\0--22\0-|
     .     .      .     .


Eb|333333333333333} G1
Bb|000000000000000}
Gb|---------------
Db|222222222222222)
Ab|222222222222222 }G2
Db|222222222222222)

the end
yea
            
Submit corrections


        Blueprints For Future Homes lessons Hard to play? Try these video lessons and learn fast Blueprints For Future Homes lessons
        
↑ Back to top | Tablatures and chords for acoustic guitar and electric guitar, ukulele, drums are parodies/interpretations of the original songs. You may use it for private study, scholarship, research or language learning purposes only