» » »

Norma Jean - Blueprints For Future Homes Tabs

Artists:  A B C D E F G H I J K L M N O P Q R S T U V W X Y Z # 

Blueprints For Future Homes Tabs

(ver. 1) Click to play this song!
Norma Jean
 Rating:
4/5 (6 votes)

 Blueprints For Future Homes lessons Tabs too difficult? Try these video lessons and learn fast
 
                Band:Norma Jean
Album:Redeemer
(thats a one not an I)

Ok,so I had this song down ever since they put it up
the super fast guitar part that made O,God so great
but I still think this is their best album to date
Ok here we go 

Tuning:Db Ab Db Gb Bb B(Typical NJ)

Scottie:Guitar 1
Chris:Guitar 2


Intro:
Guitar 1
B |-------------------------------------------------------------------------|
Bb|---------------------------------------------------------------------------|
Gb|---3p0-----3p0-------3p0-----3p0---------3p0-----3p0-------3p0-----3p0-----|
Db|2--3p0--2--3p0--2-2--3p0--2--3p0--2-2-2--3p0--2--3p0--2-2--3p0--2--3p0--2-2|
Ab|2--1p0--2--1p0--2-2--1p0--2--1p0--2-2-2--1p0--2--1p0--2-2--1p0--2--1p0--2-2|
Db|2-------2-------2-2-------2-------2-2-2-------2-------2-2-------2-------2-2|



Guitar 2
B |-------------------------------------------------------------------------|
Bb|---------------------------------------------------------------------------|
Gb|---3p0-----3p0-------3p0-----3p0---------3p0-----3p0-------3p0-----3p0-----|
Db|2--3p0--2--3p0--2-2--3p0--2--3p0--2-2-2--3p0--2--3p0--2-2--3p0--2--3p0--2-2|
Ab|2--1p0--2--1p0--2-2--1p0--2--1p0--2-2-2--1p0--2--1p0--2-2--1p0--2--1p0--2-2|
Db|2-------2-------2-2-------2-------2-2-2-------2-------2-2-------2-------2-2|


Break:
Guitar 1
B |------------------------------------------|
Bb|------------------------------------------|
Gb|12~---------9~------------11~---12~-------|
Db|-x~---------x~-------------x~----x~-------|
Ab|10~---------7~-------------9~---10~-------|
Db|------------------------------------------|


Guitar 2
B |------------------------------------------|
Bb|------------------------------------------|
Gb|------------------------------------------|
Db|5~---------2~-------------0~---10~--------|
Ab|5~---------2~-------------0~---10~--------|
Db|5~---------2~-------------0~---10~--------|


Guitar 1 Repeat 1X
B |-------------------------------------------|
Bb|----8~---------------12--------------------|
Gb|-------9~---------------12-----11b---------|
Db|-9~-------9~-----12~-------12-------12-----|
Ab|-------------------------------------------|
Db|-------------------------------------------|


Guitar 2
B |------------------------------------------|
Bb|------------------------------------------|
Gb|------------------------------------------|
Db|2~------------------------0~---10~--------|
Ab|2~------------------------0~---10~--------|
Db|2~------------------------0~---10~--------|

Pre-Chorus: 
Guitar 1
B |-------------------------------------------|
Bb|00000000-00000000000-1212121212------------|
Gb|00000000-11111111111-1111111111------------|
Db|99999999-99999999999-9999999999------------|
Ab|-------------------------------------------|
Db|-------------------------------------------|

Guitar 2
B |------------------------------------------|
Bb|------------------------------------------|
Gb|------------------------------------------|
Db|22222222-000000000-101010101010-----------|
Ab|22222222-000000000-101010101010-----------|
Db|22222222-000000000-101010101010-----------|


Chorus:
Guitar 1
B |--------------------------------------------------------|
Bb|--------------------------------------------------------|
Gb|----12----------12-12-11-11--------1212121212-1111111111|
Db|2-0--x---0-2-0---x-x---x--x--0-2-0--x-x-x-x-x--x-x-x-x-x|
Ab|2-0-10---0-2-0--10-10--9--9--0-2-0-1010101010--9-9-9-9-9|
Db|2-0------0-2-0---------------0-2-0----------------------|

Guitar 2
B |--------------------------------------------------------|
Bb|--------------------------------------------------------|
Gb|--------------------------------------------------------|
Db|2-0--10--0-2-0--10-10-10-10-0-2-0-10---2----------------|
Ab|2-0--10--0-2-0--10-10-10-10-0-2-0-10---2----------------|
Db|2-0--10--0-2-0--10-10-10-10-0-2-0-10---2----------------|


Both Guitars
Repeat 1x
B |---------------------------------------------------------|
Bb|---------------------------------------------------------|
Gb|---------------------------------------------------------|
Db|101010101010-----------------101010101010-12121212121212-|
Ab|101010101010-14b-14b-14b-14b-101010101010-12121212121212-|
Db|101010101010-----------------101010101010-12121212121212-|


Guitar 1
B |--------------------------------------------------------|
Bb|--------------------------------------------------------|
Gb|----12----------12-12-11-11--------1212121212-1111111111|
Db|2-0--x---0-2-0---x-x---x--x--0-2-0--x-x-x-x-x--x-x-x-x-x|
Ab|2-0-10---0-2-0--10-10--9--9--0-2-0-1010101010--9-9-9-9-9|
Db|2-0------0-2-0---------------0-2-0----------------------|

Guitar 2
B |--------------------------------------------------------|
Bb|--------------------------------------------------------|
Gb|--------------------------------------------------------|
Db|2-0--10--0-2-0--10-10-10-10-0-2-0-10---2----------------|
Ab|2-0--10--0-2-0--10-10-10-10-0-2-0-10---2----------------|
Db|2-0--10--0-2-0--10-10-10-10-0-2-0-10---2----------------|



Post Chorus:
Guitar 1
B |---------------------------------------------------------|
Bb|--------------------------------------121212121212121212-|
Gb|---------------------------------------9-9-9-9-9-9-9-9-9-|
Db|101010101010-----------------101010-0--------------------|
Ab|101010101010-14b-14b-14b-14b-101010-0--------------------|
Db|101010101010-----------------101010-0--------------------|

Guitar 2
B |---------------------------------------------------------|
Bb|---------------------------------------------------------|
Gb|---------------------------------------------------------|
Db|101010101010-----------------101010-0--------------------|
Ab|101010101010-14b-14b-14b-14b-101010-0--------------------|
Db|101010101010-----------------101010-0--------------------|

Verse:
Guitar 1
B |-------------------------------------------------------------------------|
Bb|---------------------------------------------------------------------------|
Gb|---3p0-----3p0-------3p0-----3p0---------3p0-----3p0-------3p0-----3p0-----|
Db|2--3p0--2--3p0--2-2--3p0--2--3p0--2-2-2--3p0--2--3p0--2-2--3p0--2--3p0--2-2|
Ab|2--1p0--2--1p0--2-2--1p0--2--1p0--2-2-2--1p0--2--1p0--2-2--1p0--2--1p0--2-2|
Db|2-------2-------2-2-------2-------2-2-2-------2-------2-2-------2-------2-2|



Guitar 2
B |-------------------------------------------------------------------------|
Bb|---------------------------------------------------------------------------|
Gb|---3p0-----3p0-------3p0-----3p0---------3p0-----3p0-------3p0-----3p0-----|
Db|2--3p0--2--3p0--2-2--3p0--2--3p0--2-2-2--3p0--2--3p0--2-2--3p0--2--3p0--2-2|
Ab|2--1p0--2--1p0--2-2--1p0--2--1p0--2-2-2--1p0--2--1p0--2-2--1p0--2--1p0--2-2|
Db|2-------2-------2-2-------2-------2-2-2-------2-------2-2-------2-------2-2|


Guitar 1
B |-------------------------------------------|
Bb|00000000-00000000000-1212121212------------|
Gb|00000000-11111111111-1111111111------------|
Db|99999999-99999999999-9999999999------------|
Ab|-------------------------------------------|
Db|-------------------------------------------|

Guitar 2
B |------------------------------------------|
Bb|------------------------------------------|
Gb|------------------------------------------|
Db|22222222-000000000-101010101010-----------|
Ab|22222222-000000000-101010101010-----------|
Db|22222222-000000000-101010101010-----------|


Guitar 1
B |--------------------------------------------------|
Bb|--1212--1212-----1212---1212-------1212-----------|
Gb|--9-9----9-9------9-9----9-9-------9-9------------|
Db|2-----2------2-2------2-------2-2-----------------|
Ab|2-----2------2-2------2-------2-2-----------------|
Db|2-----2------2-2------2-------2-2-----------------|


Guitar 2
B |--------------------------------------------------|
Bb|--------------------------------------------------|
Gb|--------------------------------------------------|
Db|2/8--2/8----2-2------2/8------2-2-----------------|
Ab|2/8--2/8----2-2------2/8------2-2-----------------|
Db|2/8--2/8----2-2------2/8------2-2-----------------|


Guitar 1
B |-------------------------------------------|
Bb|8888888888888888888888888888888888888888888|
Gb|9999999999999999999999999999999999999999999|
Db|-------------------------------------------|
Ab|-------------------------------------------|
Db|-------------------------------------------|


Guitar 2
B |-------------------------------------------|
Bb|-------------------------------------------|
Gb|-------------------------------------------|
Db|2---2-----2-2------2------2-2--------------|
Ab|2---2-----2-2------2------2-2--------------|
Db|2---2-----2-2------2------2-2--------------|


Pre-Chorus:
Guitar 1
B |---------------------------------|
Bb|---------------------------------|
Gb|16b-----16b----16b-----16b-------|
Db|-x---0---x--0---x---0---x---0----|
Ab|14b--0--14b-0--14b--0--14b--0----|
Db|-----0------0-------0-------0----|


Chorus:
Guitar 1
B |--------------------------------------------------------|
Bb|--------------------------------------------------------|
Gb|----12----------12-12-11-11--------1212121212-1111111111|
Db|2-0--x---0-2-0---x-x---x--x--0-2-0--x-x-x-x-x--x-x-x-x-x|
Ab|2-0-10---0-2-0--10-10--9--9--0-2-0-1010101010--9-9-9-9-9|
Db|2-0------0-2-0---------------0-2-0----------------------|

Guitar 2
B |--------------------------------------------------------|
Bb|--------------------------------------------------------|
Gb|--------------------------------------------------------|
Db|2-0--10--0-2-0--10-10-10-10-0-2-0-10---2----------------|
Ab|2-0--10--0-2-0--10-10-10-10-0-2-0-10---2----------------|
Db|2-0--10--0-2-0--10-10-10-10-0-2-0-10---2----------------|


Both Guitars
Repeat 1x
B |---------------------------------------------------------|
Bb|---------------------------------------------------------|
Gb|---------------------------------------------------------|
Db|101010101010-----------------101010101010-12121212121212-|
Ab|101010101010-14b-14b-14b-14b-101010101010-12121212121212-|
Db|101010101010-----------------101010101010-12121212121212-|


Guitar 1
B |--------------------------------------------------------|
Bb|--------------------------------------------------------|
Gb|----12----------12-12-11-11--------1212121212-1111111111|
Db|2-0--x---0-2-0---x-x---x--x--0-2-0--x-x-x-x-x--x-x-x-x-x|
Ab|2-0-10---0-2-0--10-10--9--9--0-2-0-1010101010--9-9-9-9-9|
Db|2-0------0-2-0---------------0-2-0----------------------|

Guitar 2
B |--------------------------------------------------------|
Bb|--------------------------------------------------------|
Gb|--------------------------------------------------------|
Db|2-0--10--0-2-0--10-10-10-10-0-2-0-10---2----------------|
Ab|2-0--10--0-2-0--10-10-10-10-0-2-0-10---2----------------|
Db|2-0--10--0-2-0--10-10-10-10-0-2-0-10---2----------------|


Both Guitars
B |--------------------------------|
Bb|---0000----00000000-------------|
Gb|---3333----33333333-------------|
Db|2-------2-----------------------|
Ab|2-------2-----------------------|
Db|2-------2-----------------------|

Guitar 1
B |--------------------------------------------------------|
Bb|--------------------------------------------------------|
Gb|----12----------12---------12---------12----------------|
Db|2-0--x---0-2-0---x--0-2-0---x--0-2-0---x----------------|
Ab|2-0-10---0-2-0--10--0-2-0--10--0-2-0--10----------------|
Db|2-0------0-2-0------0-2-0------0-2-0--------------------|

Guitar 2
B |--------------------------------------------------------|
Bb|--------------------------------------------------------|
Gb|--------------------------------------------------------|
Db|2-0--10----0-2-0--10-0-2-0--10---0-2-0--10--------------|
Ab|2-0--10----0-2-0--10-0-2-0--10---0-2-0--10--------------|
Db|2-0--10----0-2-0--10-0-2-0--10---0-2-0--10--------------|

Outro:
Guitar 1
B |-------------------------------------------------------------------------|
Bb|---------------------------------------------------------------------------|
Gb|---3p0-----3p0-------3p0-----3p0---------3p0-----3p0-------3p0-----3p0-----|
Db|2--3p0--2--3p0--2-2--3p0--2--3p0--2-2-2--3p0--2--3p0--2-2--3p0--2--3p0--2-2|
Ab|2--1p0--2--1p0--2-2--1p0--2--1p0--2-2-2--1p0--2--1p0--2-2--1p0--2--1p0--2-2|
Db|2-------2-------2-2-------2-------2-2-2-------2-------2-2-------2-------2-2|


Guitar 2
B |-------------------------------------------------------------------------|
Bb|-------------------------------------------------------------------------|
Gb|-------------------------------------------------------------------------|
Db|2/1---2/1---2-2/1----2/1----2-2-2/1------2/1----2-2/1----2/1----2-2/1----|
Ab|2/1---2/1---2-2/1----2/1----2-2-2/1------2/1----2-2/1----2/1----2-2/1----|
Db|2/1---2/1---2-2/1----2/1----2-2-2/1------2/1----2-2/1----2/1----2-2/1----|


Both Guitars
B |--------------------|
Bb|--------------------|
Gb|--------------------|
Db|22222222222222------|
Ab|22222222222222------|
Db|22222222222222------|


And there we go 
I hope you like it 
God bless you all =O
            
Submit corrections


        Blueprints For Future Homes lessons Hard to play? Try these video lessons and learn fast Blueprints For Future Homes lessons
        
↑ Back to top | Tablatures and chords for acoustic guitar and electric guitar, ukulele, drums are parodies/interpretations of the original songs. You may use it for private study, scholarship, research or language learning purposes only