» » »

Norma Jean - Vipers Snakes And Actors Tabs

Artists:  A B C D E F G H I J K L M N O P Q R S T U V W X Y Z # 

Vipers Snakes And Actors Tabs

(ver. 1) Click to play this song!
Norma Jean
 Rating:
4/5 (4 votes)

 Vipers Snakes And Actors lessons Tabs too difficult? Try these video lessons and learn fast
 
                
Band: Norma Jean


Tuning: Db Ab Db Gb Bb B

Intro:
B --------------------------------I           B ------------|I
Bb -------------------------------I           Bb -----------|I
Gb --2-2---------2-2-2------------I (4x)      Gb –-2--------|I
Db --3-3---------3-3-3------------I           Db –-3--------|I
Ab --5-5-0-0-0-0-5-5-5-0-0--------I           Ab –-5--------|I
Db ------0-0-0-0-------0-0--------I           Db -----------|I
   pm    -------       -------------------------------------|


Verse:
B -------------------------------------------------|I
Bb ------------------------------------------------|I
Gb ------------------------------------------------|I (4x)
Db --------3-3-3-----------------------------------|I
Ab --0-0-0-5-5-5-3-3-6-6---------------------------|I
Db --0-0-0-------3-3-6-6---------------------------|I


B -------------------------------------------------|I
Bb ------------------------------------------------|I
Gb ------------------------------------------------|I (4x)
Db ------------------------------------------------|I
Ab --2-1-0-2/6-6-6---------------------------------|I
Db --2-1-0-2/6-6-6---------------------------------|I


B -------------------------------------------------|I
Bb ------------------------------------------------|I
Gb ------------------------------------------------|I (4x)
Db --------3-3-3-----------------------------------|I
Ab --0-0-0-5-5-5-3-3-6-6---------------------------|I
Db --0-0-0-------3-3-6-6---------------------------|I


B -------------------------------------------------|I
Bb ------------------------------------------------|I
Gb ------------------------------------------------|I (1x)
Db ------------------------------------------------|I
Ab --2-1-0-2-1-0-2-1-0-2/6-6-6---------------------|I
Db --2-1-0-2-1-0-2-1-0-2/6-6-6---------------------|I


B -------------------------------------------------|I
Bb ------------------------------------------------|I
Gb ------------------------------------------------|I (3x)
Db ------------------------------------------------|I
Ab --2-1-0-2/6-6-6---------------------------------|I
Db --2-1-0-2/6-6-6---------------------------------|I


B -------------------------------------------------|I
Bb ------------------------------------------------|I
Gb ------------------------------------------------|I (1x)
Db ------------------------------------------------|I
Ab --2-1-0-----2-1-0-----2-1-0-----2-1-0-----------|I
Db --2-1-0-----2-1-0-----2-1-0-----2-1-0-----------|I
          Gun!      Gun!      Gun!


Pre-verse pt2:
B -------------------------------------------------|I
Bb ------------------------------------------------|I
Gb ------------------------------------------------|I (1x)
Db ------------------------------------------------|I
Ab ------------------------------------------------|I
Db --6-6-6-6-6-6-6//////////////////15-------------|I
   (start at six, then slowly move up the frets)


Verse pt2:
B -------------------------------------------------|I
Bb --------3~----------3~--------------------------|I
Gb --------3~----------3~--------------------------|I (8x)
Db --------3~----------3~--------------------------|I
Ab --2-0-2--------2-0-2----------------------------|I
Db --2-0-2--------2-0-2----------------------------|I


Pre-Chorus:
B -------------------------------------------------|I
Bb ------------------------------------------------|I
Gb ------------------------------------------------|I (1x)
Db ------------------------------------------------|I
Ab ------------------------------------------------|I
Db --6-6-6-6-6-6-6---------------------------------|I
   (hold out for like four measures)


Bridge: Clean
B -------I        -----------------------------------------------|I
Bb ------I        -----------------------------------------------|I
Gb ------I (or)   ---------------10-------------10---------------|I
Db –-0~--I        ------------12----12~-----12----12---12~-------|I
Ab –-0~--I        ---------0~------------0~----------0-----------|I
Db –-0~--I        ------0~-------------0~------------------------|I
(not really sure but I know it is basically this chord and something with these notes)


Pre-Breakdown:
B -----------------------------------------------|I
Bb ----------------------------------------------|I
Gb ----------------------------------------------|I
Db ----------------------------------------------|I
Ab ----------------------------------------------|I
Db --0-0-0-0-0-0-0-0-0-0-0-0-0-0-0-0-0-----------|I
  pm --------------------------------------------|
  (listen for the rhythm)


Breakdown: (not really sure about the rhythm but I’m pretty sure it is something like this)
B -------------------------------------------------|I
Bb ------------------------------------------------|I
Gb --------7--7-7--------7-7---7/10----------------|I (5x)
Db --------x--x-x--------x-x---x/x-----------------|I
Ab –-0-0-0-5--5-5--0-0-0-5-5-0-5/8-----------------|I
Db --0-0-0---------0-0-0-----0---------------------|I

Repeat the intro 3x

(This part took me forever to get and I still think the last 10 notes are wrong,
but they work for now)
B ------------------------------------------------------------------------------------|I
Bb -----------------------------------------------------------------------------------|I
Gb -----------------------------------------------------------------------------------|I
Db --2-2-2-6-6-6--2-2-6-6--3-3-3-8--8—-8---3-3-8—8----5-5-5-8--8--8---5-5-8--8--------|I
Ab --4-4-4-8-8-8--4-4-8-8—-5-5-5-10-10-10--5-5-10-10--7-7-7-10-10-10--7-7-10-10-------|I
Db -----------------------------------------------------------------------------------|I


(play this again)
B -------------------------------------------------|I
Bb --------3~----------3~--------------------------|I
Gb --------3~----------3~--------------------------|I (4x)
Db --------3~----------3~--------------------------|I
Ab --2-0-2--------2-0-2----------------------------|I
Db --2-0-2--------2-0-2----------------------------|I


B -------------------------------------------------|I
Bb ------------------------------------------------|I
Gb ------------------------------------------------|I (2x open then 2x palm-muted)
Db ------------------------------------------------|I
Ab --0--0-0-0--0-0--0--0---------------------------|I
Db --0--0-0-0--0-0—-0--0---------------------------|I
(listen to the rhythm its messes with your mind)

Outro: ( some notes played in between this and this repeated, but you can figure them out)
B ----------------------------------------------------------|I
Bb ---------------------------------------------------------|I
Gb --7------------------------------------------------------|I (4x)
Db --x-(16x)—5/8-8-8-8-8-8-8---3/6-6-6--1/4-4-4-------------|I
Ab --5------------------------------------------------------|I
Db -----------5/8-8-8-8—8-8-8--3/6-6-6--1/4-4-4-------------|I

Lyrics:
Carry your flags, march into that fictional cause and show off that medal
Just don't reach for that gun
Reach for that gun
Carry that banner, build that heart out of stone
Just don't reach for that gun
You scaled the high horse and I felt the change
I know the difference between you and me
You cleaned the outside of your chalice but it's filled with robbery
And self indulgence...Just like the rest of us
You wear that cross like a crown. You wear that cross like a dagger
Come down from that tower,
Nothing will be the outcome.
Nothing is the outcome


Thank you
God Bless
            
Submit corrections


        Vipers Snakes And Actors lessons Hard to play? Try these video lessons and learn fast Vipers Snakes And Actors lessons
        
↑ Back to top | Tablatures and chords for acoustic guitar and electric guitar, ukulele, drums are parodies/interpretations of the original songs. You may use it for private study, scholarship, research or language learning purposes only