» » »

Norma Jean - Blueprints For Future Homes Bass

Artists:  A B C D E F G H I J K L M N O P Q R S T U V W X Y Z # 

Blueprints For Future Homes Bass

(ver. 1) Click to play this song!
Norma Jean
 Rating:
4/5 (4 votes)

 Blueprints For Future Homes lessons Tabs too difficult? Try these video lessons and learn fast
 
                Blueprints for Future Homes                           
Norma Jean
Jake Schultz



      E  S S S S E  S S S S E  E  S S S S E  S S S S E  E   
D#||-------------------------------------------------------|
A#||-------------------------------------------------------|
F#||-------------------------------------------------------|
C#||-------------------------------------------------------|
G#||-------1-1-1------1-1-1---------1-1-1------1-1-1-------|
C#||--2--2-------2--2-------2--2--2-------2--2-------2--2--|


  E  S S S S E  S S S S E  E  S S S S E  S S S S E  E   
-------------------------------------------------------|
-------------------------------------------------------|
-------------------------------------------------------|
-------------------------------------------------------|
-------1-1-1------1-1-1---------1-1-1------1-1-1-------|
--2--2-------2--2-------2--2--2-------2--2-------2--2--|


  E.  S E  E.  S E.  S E     E.  S E   E.    E.   E   E     W                 
--------------------------|------------------------------|-------------------|
--------------------------|------------------------------|-------------------|
--------------------------|------------------------------|-------------------|
--------------------------|------------------------------|-------------------|
--------------------------|------------------------------|-------------------|
--5---5-5--2---2-2---2-2--|--0---0-0--10s---12---10--10--|--2----------------|


  Q.      H        E     W                   Q.      H        E   
----------------------|-------------------|----------------------|
----------------------|-------------------|----------------------|
----------------------|-------------------|----------------------|
----------------------|-------------------|----------------------|
----------------------|-------------------|----------------------|
--0------10--------L--|--2----------------|--0------10--------L--|


  E  E  S S S E  S E  S S S S    E  E  S S S  E   S  E   S  S  S  S  
------------------------------|-------------------------------------|
------------------------------|-------------------------------------|
------------------------------|-------------------------------------|
------------------------------|-------------------------------------|
------------------------------|-------------------------------------|
--2--2--2-2-2-2--2-2--2-5-5-5-|--0--0--0-0-0-10--10-10--10-10-10-10-|


  E  E  S S S E  S E  S S S S    E  E  S S S  E   S  E   S S S S  
------------------------------|----------------------------------|
------------------------------|----------------------------------|
------------------------------|----------------------------------|
------------------------------|----------------------------------|
------------------------------|----------------------------------|
--2--2--2-2-2-2--2-2--2-5-5-5-|--0--0--0-0-0-10--10-10--10-------|


  E  E   E  E  E  E   E  E     E  E   E  E  E  E   E  E   
----------------------------|----------------------------|
----------------------------|----------------------------|
----------------------------|----------------------------|
----------------------------|----------------------------|
----------------------------|----------------------------|
--2--0--10--0--2--0--10--0--|--2--0--10--0--2--0--10--0--|


   S  S  S  S  S S S S S  S  S S  S  S  S  S  
---------------------------------------------|
---------------------------------------------|
---------------------------------------------|
---------------------------------------------|
---------------------------------------------|
--10-10-10-10-10---------10-10-0-10-12-12-12-|


   S  S  S  S  S S S S S  S  S S S S S S    E  E   E  E  E  E   E  E   
-----------------------------------------|----------------------------|
-----------------------------------------|----------------------------|
-----------------------------------------|----------------------------|
-----------------------------------------|----------------------------|
-----------------------------------------|----------------------------|
--10-10-10-10-10---------10-10-0-7-0-5-0-|--2--0--10--0--2--0--10--0--|


  E  E   E  E  E  E   E  E      S  S  S  S  S S S S S  S  S S  S  S  S  S  
----------------------------|---------------------------------------------|
----------------------------|---------------------------------------------|
----------------------------|---------------------------------------------|
----------------------------|---------------------------------------------|
----------------------------|---------------------------------------------|
--2--0--10--0--2--0--10--0--|--10-10-10-10-10---------10-10-0-10-12-12-12-|


   S  S  S  S  S S S S S  S  S S Q       H.            
--------------------------------------|---------------|
--------------------------------------|---------------|
--------------------------------------|---------------|
--------------------------------------|---------------|
--------------------------------------|---------------|
--10-10-10-10-10---------10-10-0-0----|--L------------|


  E  S S S S E  S S S S E  E  S S S S E  S S S S E  E   
-------------------------------------------------------|
-------------------------------------------------------|
-------------------------------------------------------|
-------------------------------------------------------|
-------1-1-1------1-1-1---------1-1-1------1-1-1-------|
--2--2-------2--2-------2--2--2-------2--2-------2--2--|


  E  S S S S E  S S S S E  E  S S S S E  S S S S E  E   
-------------------------------------------------------|
-------------------------------------------------------|
-------------------------------------------------------|
-------------------------------------------------------|
-------1-1-1------1-1-1---------1-1-1------1-1-1-------|
--2--2-------2--2-------2--2--2-------2--2-------2--2--|


  S E  S E  S S S E  S E  E     S E  S E   S  E   E   S  E   E   
-----------------------------|----------------------------------|
-----------------------------|----------------------------------|
-----------------------------|----------------------------------|
-----------------------------|----------------------------------|
-----------------------------|----------------------------------|
--2-2--2-2--2-2-2-2--2-2--2--|--0-0--0-0--10-10--10--10-10--10--|


  S E  S E  S S S E  S E  E     S E  S E   S  E   E   S  E   E   
-----------------------------|----------------------------------|
-----------------------------|----------------------------------|
-----------------------------|----------------------------------|
-----------------------------|----------------------------------|
-----------------------------|----------------------------------|
--2-2--2-2--2-2-2-2--2-2--2--|--0-0--0-0--10-10--10--10-10--10--|


  E  E  S S S E  S E  S S S S    E  E  S S S  E   S  E   S  S  S  S  
------------------------------|-------------------------------------|
------------------------------|-------------------------------------|
------------------------------|-------------------------------------|
------------------------------|-------------------------------------|
------------------------------|-------------------------------------|
--2--2--2-2-2-2--2-2--2-5-5-5-|--0--0--0-0-0-10--10-10--10-10-10-10-|


  E  E  S S S E  S E  S S S S    E  E  S S S  E   S  E   S  S  S  S  
------------------------------|-------------------------------------|
------------------------------|-------------------------------------|
------------------------------|-------------------------------------|
------------------------------|-------------------------------------|
------------------------------|-------------------------------------|
--2--2--2-2-2-2--2-2--2-5-5-5-|--0--0--0-0-0-10--10-10--10-10-10-10-|


  E  S S S S E  S S S S S S E  S S S S E  S S S S S S S S  
----------------------------------------------------------|
----------------------------------------------------------|
----------------------------------------------------------|
----------------------------------------------------------|
----------------------------------------------------------|
--2----------2----------2---2----------2----------2---2---|


  E  S S S S E  S S S S S S E  S S S S E  S S S S S S S S  
----------------------------------------------------------|
----------------------------------------------------------|
----------------------------------------------------------|
----------------------------------------------------------|
----------------------------------------------------------|
--2----------2----------2---2----------2----------2---2---|


  E  S S S S E  S S S S S S E  S S S S E  S S S S S S S S  
----------------------------------------------------------|
----------------------------------------------------------|
----------------------------------------------------------|
----------------------------------------------------------|
----------------------------------------------------------|
--2----------2----------2---2----------2----------2---2---|


  E  S S S S E  S S S S S S E  S S S S E  S S S S S S S S       
----------------------------------------------------------|----|
----------------------------------------------------------|----|
----------------------------------------------------------|----|
----------------------------------------------------------|----|
----------------------------------------------------------|----|
--2----------2----------2---2----------2----------2---2---|----|


  E  E   E  E  E  E   E  E     E  E   E  E  E  E   E  E   
----------------------------|----------------------------|
----------------------------|----------------------------|
----------------------------|----------------------------|
----------------------------|----------------------------|
----------------------------|----------------------------|
--2--0--10--0--2--0--10--0--|--2--0--10--0--2--0--10--0--|


   S  S  S  S  S S S S S  S  S S  S  S  S  S  
---------------------------------------------|
---------------------------------------------|
---------------------------------------------|
---------------------------------------------|
---------------------------------------------|
--10-10-10-10-10---------10-10-0-10-12-12-12-|


   S  S  S  S  S S S S S  S  S S S S S S    E  E   E  E  E  E   E  E   
-----------------------------------------|----------------------------|
-----------------------------------------|----------------------------|
-----------------------------------------|----------------------------|
-----------------------------------------|----------------------------|
-----------------------------------------|----------------------------|
--10-10-10-10-10---------10-10-0-7-0-5-0-|--2--0--10--0--2--0--10--0--|


  E  E   E  E  E  E   E  E      S  S  S  S  S S S S S  S  S S  S  S  S  S  
----------------------------|---------------------------------------------|
----------------------------|---------------------------------------------|
----------------------------|---------------------------------------------|
----------------------------|---------------------------------------------|
----------------------------|---------------------------------------------|
--2--0--10--0--2--0--10--0--|--10-10-10-10-10---------10-10-0-10-12-12-12-|


   S  S  S  S  S S S S S  S  S S S S S S    E  S S S S E  S S S S S S S S  
-----------------------------------------|--------------------------------|
-----------------------------------------|--------------------------------|
-----------------------------------------|--------------------------------|
-----------------------------------------|--------------------------------|
-----------------------------------------|--------------------------------|
--10-10-10-10-10---------10-10-0-0-0-0-0-|--2----------2------------------|


  E  E   E  E  E  E   E  E     E  E   E  E  E  E   E  E   
----------------------------|----------------------------|
----------------------------|----------------------------|
----------------------------|----------------------------|
----------------------------|----------------------------|
----------------------------|----------------------------|
--2--0--10--0--2--0--10--0--|--2--0--10--0--2--0--10--0--|


  E  E   E  E  E  E   E  E     E  E   E  E  E  E   E  E   
----------------------------|----------------------------|
----------------------------|----------------------------|
----------------------------|----------------------------|
----------------------------|----------------------------|
----------------------------|----------------------------|
--2--0--10--0--2--0--10--0--|--2--0--10--0--2--0--10--0--|


  Q     E  E  E  E  E  Q     E  E  E  E  E  E   
-----------------------------------------------|
-----------------------------------------------|
-----------------------------------------------|
-----------------------------------------------|
-----------------------------------------------|
--2s----1--0--------2--2s----1--0--------2--2--|


  Q     E  E  E  E  E  Q     E  E  E  E  E  E   
-----------------------------------------------|
-----------------------------------------------|
-----------------------------------------------|
-----------------------------------------------|
-----------------------------------------------|
--2s----1--0--------2--2s----1--0--------2--2--|


  E  E  E  E  E  E  E  E  E  E  E  E  E    
-----------------------------------------||
-----------------------------------------||
-----------------------------------------||
-----------------------------------------||
-----------------------------------------||
--2--2--2--2--2--2--2--2--2--2--2--2--2--||




Duration Legend
---------------
W - whole
H - half
Q - quarter
E - 8th
S - 16th
T - 32nd
X - 64th
. - note dotted
|-n-|  - n-tuplets


Tablature Legend
----------------
L - tied note
x - dead note
g - grace note
(n) - ghost note
> - accentuded note
NH - natural harmonic
AH - artificial harmonic
TH - tapped harmonic
SH - semi harmonic
PH - pitch harmonic
h - hammer on
p - pull off
b - bend
br - bendRelease
pb - preBend
pbr - preBendRelease
brb - bendReleaseBend
\n/ - tremolo bar dip
\n - tremolo bar dive
-/n - tremolo bar Release up
/n\ - tremolo bar inverted dip
/n - tremolo bar return
-\n - tremolo bar Release down
S - shift slide
s - legato slide
/ -  slide into from below or out of upwards
\ -  slide into from above or out of downwards
~ - vibrato
W - wide vibrato
tr - trill
TP - tremolo picking
T - tapping
S - slap
P - pop
< - fade in
^ - brush up
v - brush down
            
Submit corrections


        Blueprints For Future Homes lessons Hard to play? Try these video lessons and learn fast Blueprints For Future Homes lessons
        
↑ Back to top | Tablatures and chords for acoustic guitar and electric guitar, ukulele, drums are parodies/interpretations of the original songs. You may use it for private study, scholarship, research or language learning purposes only