Home » N » Nightwish »

Nightwish - The Carpenter Tabs

Artists:  A B C D E F G H I J K L M N O P Q R S T U V W X Y Z # 

The Carpenter Tabs

(ver. 1) Click to play this song!
Nightwish
Tempo=120
Standard tuning: e-B-G-D-A-E


INTRO
  Guitar
e|-four-times------|----------------|----------------|-----------------|
B|-----------------|----------------|----------------|-----------------|
G|*----------------|----------------|----------------|--------7---7-7-*|
D|*7---7-7-7---7-7-|7---7-7-7-5-5---|7---7-7-7---7-7-|3---3-3-7---7-7-*|
A|-7---7-7-7---7-7-|7---7-7-7-5-5---|7---7-7-7---7-7-|3---3-3-5---5-5--|
E|-5---5-5-5---5-5-|5---5-5-5-3-3---|5---5-5-5---5-5-|1---1-1----------|

BRIDGE (0:32)
 Guitar
e|-----------------|
H|-----------------|
G|-----------------|
D|-7---------------|
A|-7---------------|
E|-5-let-ring------|
||Guitar           |
e|-------5---------|------5---------|--------5---------|------5----------|
B|---------5-------|--------8-6-5---|------6---6-------|----6---6--------|
G|*----5-----------|----5---------7-|----5-------------|--5-------------*|
D|*----------------|----------------|2h3---------------|3---------------*|
A|---7-------------|--7-------------|------------------|-----------------|
E|-5---------------|5---------------|------------------|-----------------|

VERSE (0:47)
  Guitar
e|-------5---------|------5-------------|------5---------|-----------------|
B|---------5-------|--------8-6h8p5-5---|----6---6-------|-----------------|
G|*----5-----------|----5-------------7-|--5-------------|-----------------|
D|*----------------|--------------------|3---------------|-----------------|
A|---7-------------|--7-----------------|----------------|-----------------|
E|-5---------------|5-------------------|----------------|-----------------|
||Guitar           |                    |                |                 |
e|-0---------------|--------------------|5---------------|-----------------|
B|-1---------------|--------------------|6---------------|-----------------|
G|*2---------------|--------------------|5---------------|-----------------|
D|*2---------------|--------------------|3---------------|-----------------|
A|-0---------------|--------------------|----------------|-----------------|
E|-----------------|--------------------|----------------|-----------------|
||Guitar           |                    |
e|only-in-2nd-verse|--------------------|
B|-----------------|--------------------|
G|-2---------------|--------------------|
D|-2---------------|--------------------|
A|-0---------------|--------------------|
E|-----------------|--------------------|
  Guitar
e|-------5---------|------5-------------|------5---------|-----------------|
B|---------5-------|--------8-6h8p6-5---|----6---6-------|-----------------|
G|*----5-----------|----5-------------7-|--5-------------|-----------------|
D|*----------------|--------------------|3---------------|-----------------|
A|---7-------------|--7-----------------|----------------|-----------------|
E|-5---------------|5-------------------|----------------|-----------------|
||Guitar           |                    |                |                 |
e|-0---------------|--------------------|5---------------|1----------------|
B|-1---------------|--------------------|6---------------|3----------------|
G|-2---------------|--------------------|5---------------|2---------------*|
D|-2---------------|--------------------|3---------------|0---------------*|
A|-0---------------|--------------------|----------------|-----------------|
E|-----------------|--------------------|----------------|-----------------|

CHORUS (1:19)
  Guitar
e|----------------|----------------|----------------|----------------|
B|----------------|----------------|----------------|----------------|
G|2-----------4---|5---------------|----------------|----------------|
D|2-----------4---|5---------------|3---------------|5---------------|
A|0-----------2---|3---------------|3---------------|5---------------|
E|----------------|----------------|1---------------|3---------------|

e|----------------|----------------|----------------|----------------|
B|----------------|----------------|----------------|----------------|
G|2-----------2-4-|5---------------|----------------|7-------5---4---|
D|2-----------2-4-|5---------------|2---------------|7-------5---4---|
A|0-----------0-2-|3---------------|2---------------|5-------3---2---|
E|----------------|----------------|0---------------|----------------|

e|----------------|----------------|----------------|----------------|
B|----------------|----------------|----------------|----------------|
G|2-----2-----2---|5-----5-----5/7-|----------------|----------------|
D|2-----2-----2---|5-----5-----5/7-|3-----3-----3---|5-----5-----5---|
A|0-0-0-0-0-0-0-0-|3-3-3-3-3-3-3---|3-----3-----3---|5-----5-----5---|
E|----------------|----------------|1-1-1-1-1-1-1-1-|3-3-3-3-3-3-3-3-|
    . .   . .   .    . .   . .        . .   . .   .    . .   . .   .
e|----------------|----------------|----------------|----------------|
B|----------------|----------------|----------------|----------------|
G|2-----2-----2---|5-----5-----5---|----------------|7-------5---4---|
D|2-----2-----2---|5-----5-----5---|2-----2-----2---|7-------5---4---|
A|0-0-0-0-0-0-0-0-|3-3-3-3-3-3-3-3-|2-----2-----2---|5-------3---2---|
E|----------------|----------------|0-0-0-0-0-0-0-0-|----------------|
    . .   . .   .    . .   . .   .    . .   . .

VERSE (1:51)

CHORUS (2:23)

INTERLUDE (2:55)
  Guitar
e|--------------------------|1st-time|2nd-time-------|
B|--------------------------|--------|---------------|
G|*-------------------------|9------*|---------------|
D|*9---\-999-999-999-999-99-|7---7--*|9-10--7-9--5-7-|
A|-7---\-777-777-777-777-77-|----5---|7--8--5-7--3-5-|
E|--------------------------|--------|---------------|
         ... ... ... ... ..

INTERLUDE 2 (3:11)
  Guitar
e|--------------------------------|---------------------------------|
B|--------------------------------|---------------------------------|
G|--------------------------------|----------------5----------------|
D|7-7-7-7-7-7-7-7-7-7-7-7-7-7-7-7-|7-7-7-7-7-7-7-7-5-------5--------|
A|7-7-7-7-7-7-7-7-7-7-7-7-7-7-7-7-|7-7-7-7-7-7-7-7-3-------5--------|
E|5-5-5-5-5-5-5-5-5-5-5-5-5-5-5-5-|5-5-5-5-5-5-5-5---------3--------|
||. . . . . . . . . . . . . . . . |. . . . . . . .                  |
||Flute                           |                                 |
e|-----4-4-------------4-4----4---|-----4-4---4-4--3---7-7------0101|
B|5---6-6-5-6-5---5---6-6-5-6---6-|5---6-6-5-6-6--------9-93--------|
G|--------------7-----------------|--------------7------------------|
D|--------------------------------|---------------------------------|
A|--------------------------------|---------------------------------|
E|--------------------------------|---------------------------------|

e|--------------------------------|---------------------------------|
B|--------------------------------|---------------------------------|
G|--------------------------------|----------------5-------7--------|
D|7-7-7-7-7-7-7-7-7-7-7-7-7-7-7-7-|7-7-7-7-7-7-7-7-5-------7--------|
A|7-7-7-7-7-7-7-7-7-7-7-7-7-7-7-7-|7-7-7-7-7-7-7-7-3-------5--------|
E|5-5-5-5-5-5-5-5-5-5-5-5-5-5-5-5-|5-5-5-5-5-5-5-5------------------|
||. . . . . . . . . . . . . . . . |. . . . . . . .                  |
||Flute                           |                                 |
e|-----4-4----4--------4-4---4-4--|-----4-4----4---3---7-7------0101|
B|5---6-6-5-6---6-5---6-6-5-6-6---|5---6-6-5-6---6------9-93--------|
G|------------------------------7-|---------------------------------|
D|--------------------------------|---------------------------------|
A|--------------------------------|---------------------------------|
E|--------------------------------|---------------------------------|

INTERLUDE 3 (3:27)
  1st Guitar
e|-----4-5-7-5h7p5-4---|----4-5-7-5h7p5-4---|
B|-5-6---------------6-|5-6---------------6-|
G|*--------------------|--------------------|
D|*--------------------|--------------------|
A|---------------------|--------------------|
E|---------------------|--------------------|
||2nd Guitar           |                    |
e|---------------------|--------------------|
B|---------------------|--------------------|
G|*----4-5-7-5h7p5-4---|----4-5-7-5h7p5-4---|
D|*6-7---------------7-|6-7---------------7-|
A|---------------------|--------------------|
E|---------------------|--------------------|

  1st Guitar                        1st 2nd
e|---45-754-----45-754-----45-754--|---|/7-|
B|5-6------6-5-6------6-5-6-------6|5--|---|
G|---------------------------------|--*|---|
D|---------------------------------|--*|---|
A|---------------------------------|---|---|
E|---------------------------------|---|---|
||2nd Guitar                       |1st|2nd|
e|---781087-----781087-----781087--|---|/12|
B|910------10910------10910------10|9--|---|
G|---------------------------------|--*|---|
D|---------------------------------|--*|---|
A|---------------------------------|---|---|
E|---------------------------------|---|---|

  VERSE 2 (3:43)
e|---------0-------|--------0---------|--------3-1-----|--------3-------|
B|-------1---1-----|------1---1-------|------------1---|----------3-----|
G|*----2-------2---|----2-------2-----|------2-------2-|------4-----4---|
D|*--2-----------2-|--2-----------2---|----3-----------|----5---------5-|
A|-0---------------|0---------------0-|--3-------------|--5-------------|
E|-----------------|------------------|1---------------|3---------------|
                                                        1st time         2nd time
e|---------0-------|--------0---------|--------0-------|--------0-------|----------------|
B|-------1---1-----|------1---1-------|------1---1-----|----------0-----|----------------|
G|-----2-------2---|----2-------2-----|----0-------0---|------0-----0--*|----------------|
D|---2-----------2-|--2-----------2---|--2-----------2-|----2---------2*|2-2-2-2-2-2-2-2-|
A|-0---------------|0---------------0-|3---------------|--2-------------|2-2-2-2-2-2-2-2-|
E|-----------------|------------------|----------------|0---------------|0-0-0-0-0-0-0-0-|
                                                                         . . . .

INTERLUDE 4 (4:15)
  Guitar
e|-four-times-----------------------------|
B|----------------------------------------|
G|*----------------------------------7---*|
D|*7---777---3---5-------2-----2-5---7---*|
A|-7---777---3---5-------2-----2-5---5----|
E|-5---555---1---3-------0-----0-3--------|
         .   .

CHORUS (4:47)

OUTRO (5:19)
e|-four-times------|----------------|----------------|-----------------|---|
B|-----------------|----------------|----------------|-----------------|---|
G|*----------------|----------------|----------------|--------7-------*|---|
D|*7---------------|--------7-5-5---|7---------------|3-------7-------*|-7-|
A|-7---------------|--------7-5-5---|7---------------|3-------5--------|-7-|
E|-5---------------|--------5-3-3---|5---------------|1----------------|-5-|

(5:58)
            
Submit corrections

↑ Back to top | Tablatures and chords for acoustic guitar and electric guitar, ukulele, drums are parodies/interpretations of the original songs. You may use it for private study, scholarship, research or language learning purposes only