» » »

Nightwish - Phantom Of The Opera Tabs

Artists:  A B C D E F G H I J K L M N O P Q R S T U V W X Y Z # 

Phantom Of The Opera Tabs

(ver. 2) Click to play this song!
Nightwish
 Rating:
4/5 (4 votes)

 Phantom Of The Opera lessons Tabs too difficult? Try these video lessons and learn fast
 
                (1)
Tuning: Drop D (DADGBE)



Intro:
|--------------------------|------------------------------|
|--------------------------|------------------------------|
|--------------------------|------------------------------|
|--------------------------|------------------------------|
|----------5-6---6-7-8--9--|--10------------10-9---8---7--|
|----------5-6---6-7-8--9--|--10------------10-9---8---7--|
Pm		   . . .  .			 . .   .   .

|------------------------------|--------------------|
|------------------------------|--------------------|
|------------------------------|--------------------|
|------------------------------|--------------------|
|--6--------5-6---6-7--8---9---|--10----------------|
|--6--------5-6---6-7--8---9---|--10----------------|
Pm	         . .  .   .

Verse I:
|---------------------|----------------------------------------|--------------------|
|---------------------|----------------------------------------|--------------------|
|---------------------|----------------------------------------|--------------------|
|--6--------8---------|--10-----------------------8------------|--10----------------|
|--6--------8---------|--10--------10--10-10--10-----10--11-10-|--10----------------|
|--6--------8---------|--10--------10-----10--10-----10--------|--10----------------|
Pm			       .      .   .      .

|-------------------|------------------------------|----------------------------|
|-------------------|------------------------------|----------------------------|
|-------------------|------------------------------|----------------------------|
|--6----------------|------------------------------|----------------------------|
|--6----------------|--10------------10-9---8---7--|--6--------5-6---6-6--6--6--|
|--6----------------|--10------------10-9---8---7--|--6--------5-6---6-6--6--6--|
Pm			         .  .   .   .                    . .  .  .

|------------------|
|------------------|
|------------------|
|------------------|
|--3---------------|
|--3---------------|

Verse II:
|---------------------|----------------------------------------|--------------------|
|---------------------|----------------------------------------|--------------------|
|---------------------|----------------------------------------|--------------------|
|--6--------8---------|--10-----------------------8------------|--10----------------|
|--6--------8---------|--10--------10--10-10--10-----10--11-10-|--10----------------|
|--6--------8---------|--10--------10-----10--10-----10--------|--10----------------|
Pm				      .      .   .      .

|-------------------|------------------------------|--------------------|
|-------------------|------------------------------|--------------------|
|-------------------|------------------------------|--------------------|
|--6----------------|------------------------------|--6--------5--------|
|--6----------------|--10------------10-9---8---7--|--4--------3--------|
|--6----------------|--10------------10-9---8---7--|--------------------|
Pm					 .  .   .   .

|------------------|
|------------------|
|------------------|
|--7---------------|
|--5---------------|
|------------------|

Verse III:
|--------------------|--------------------------------------------------|
|--------------------|--------------------------------------------------|
|--3--------5--------|--------------------------------------------------|
|--3--------5--------|--7-7--7--7--10-10--9--9---8--7--7--7--10-9--8--7-|
|--1--------3--------|--5-5--5--5—-8—-8---7--7---6--5--5--5--8--7--6--5-|
|--------------------|--------------------------------------------------|
Pm	               . .  .  .  .  .   .  .   .  .  .  .  .  .  .  .

|--------------------------------------|--------------------------------------|
|--------------------------------------|--------------------------------------|
|--------------------------------------|--3--------3--------3--------3--------|
|--7--7--7--7--7--7--7--7--7--7--7--7--|--3--3--3--3--3--3--3--3--3--3--3--3--|
|--5--5--5--5--5--5--5--5--5--5--5--5--|--1--1--1--1--1--1--1--1--1--1--1--1--|
|--------------------------------------|--------------------------------------|
Pm  .  .  .  .  .  .  .  .  .  .  .  .        .  .     .  .     .  .     .  .

Interlude I:
|-------------------------------------|-------------------------------------|
|-------------------------------------|-------------------------------------|
|--7--------7--------7--------7-6-5-4-|--3--------3--------3--------3-4-5-6-|
|--7--7--7--7--7--7--7--7--7--7-6-5-4-|--3--3--3--3--3--3--3--3--3--3-4-5-6-|
|--5--5--5--5--5--5--5--5--5--5-4-3-2-|--1--1--1--1--1--1--1--1--1--1-2-3-4-|
|-------------------------------------|-------------------------------------|
Pm     .  .     .  .     .  .    	        .  .     .  .     .  .
                                                                             
|-------------------------------------|--------------------------------------|
|-------------------------------------|--------------------------------------|
|--7--------7--------7--------7-6-5-4-|--3--------3--------2--------2--------|
|--7--7--7--7--7--7--7--7--7--7-6-5-4-|--3--3--3--3--3--3--2--2--2--2--2--2--|
|--5--5--5--5--5--5--5--5--5--5-4-3-2-|--1--1--1--1--1--1--0--0--0--0--0--0--|
|-------------------------------------|--------------------------------------|
Pm     .  .     .  .     .  .		        .  .     .  .     .  .     .  .

Bridge:                                                                       
|-------------------------|-----------------------|
|-------------------------|-----------------------|
|-------------------------|-----------------------|
|--8--------6-8------6--6-|--8--------6-8---------|
|--6--------4-6------4--4-|--6--------4-6---------|
|-------------------------|-----------------------|

Verse IV:                                                                
|--------------------|----------------------------------------------------------------|
|--------------------|----------------------------------------------------------------|
|--4--------6--------|----------------------------------------------------------------|
|--4--------6--------|--8--8---8---8---8---8---8---8---8---8---8---8---8---8---8---8--|
|--2--------4--------|--6--6---6---6---6---6---6---6---6---6---6---6---6---6---6---6--|
|--------------------|----------------------------------------------------------------|
Pm 			  .  .   .   .   .   .   .   .   .   .   .   .   .   .   .   .
                     
|--------------------|----------------------------------------------------------------|
|--------------------|----------------------------------------------------------------|
|--4--------6--------|----------------------------------------------------------------|
|--4--------6--------|--8-—8---8---8---8---8---8---8---8---8---8---8---8---8---8---8--|
|--2--------4--------|--6--6---6---6---6---6---6---6---6---6---6---6---6---6---6---6--|
|--------------------|----------------------------------------------------------------|
Pm			  .  .   .   .   .   .   .   .   .   .   .   .   .   .   .   .
                                                                     
|--------------------|-----------------------------------------------|
|--------------------|-----------------------------------------------|
|--4--------6--------|--8--------------------------------------------|
|--4--------6--------|--8--8---8---8---8-----7----6----4-3-4--4-6--6-|
|--2--------4--------|--6--6---6---6---6--6--5-5--4-4--2-1-2--2-4--4-|
|--------------------|-----------------------------------------------|
Pm			     .   .   .   .  .  . .  . .  . . .  . .  .
                                                   
|--------------------------------------------------|
|--------------------------------------------------|
|--8-----------8-----------8-----------8-----------|
|--8---8---8---8---8---8---8---8---8---8---8---8---|
|--6---6---6---6---6---6---6---6---6---6---6---6---|
|--------------------------------------------------|
Pm	.   .       .   .       .   .       .   .
                                       
|--------------------------------------|
|--------------------------------------|
|--4--------4--------4--------4--------|
|--4--4--4--4--4--4--4--4--4--4--4--4--|
|--2--2--2--2--2--2--2--2--2--2--2--2--|
|--------------------------------------|
Pm    .  .     .  .     .  .     .  .
                                                
Interlude II:
|-----------------------------------------------|
|-----------------------------------------------|
|--8-----------8-----------8-----------8--7-6-5-|
|--8---8---8---8---8---8---8---8---8---8--7-6-5-|
|--6---6---6---6---6---6---6---6---6---6--5-4-3-|
|-----------------------------------------------|
Pm	.   .       .   .       .   .
                                      
|-------------------------------------|
|-------------------------------------|
|--4--------4--------4--------4-5-6-7-|
|--4--4--4--4--4--4--4--4--4--4-5-6-7-|
|--2--2--2--2--2--2--2--2--2--2-3-4-5-|
|-------------------------------------|
Pm    .  .     .  .     .  .
                                                
|-----------------------------------------------|--------------------------------------|
|-----------------------------------------------|--------------------------------------|
|--8-----------8-----------8-----------8--7-6-5-|--4--------4--------4--------4--------|
|--8---8---8---8---8---8---8---8---8---8--7-6-5-|--4--4--4--4--4--4--4--4--4--4--4--4--|
|--6---6---6---6---6---6---6---6---6---6--5-4-3-|--2--2--2--2--2--2--2--2--2--2--2--2--|
|-----------------------------------------------|--------------------------------------|
Pm	.   .       .   .       .   .                  .  .     .  .     .  .     .  .
                                           
Outro:
|------------------------------------------|
|------------------------------------------|
|------------------------------------------|
|--5-5--5--5--5-5--4-3-5-5--5--5--5-5--4-3-| x12
|--3-3--3--3--3-3--3-3-3-3--3--3--3-3--3-3-|
|------------------------------------------|
Pm . .  .  .  . .  . . . .  .  .  . .  . .
            
Submit corrections


        Phantom Of The Opera lessons Hard to play? Try these video lessons and learn fast Phantom Of The Opera lessons
        
↑ Back to top | Tablatures and chords for acoustic guitar and electric guitar, ukulele, drums are parodies/interpretations of the original songs. You may use it for private study, scholarship, research or language learning purposes only