» » »

Nightwish - Passion And The Opera Tabs

Artists:  A B C D E F G H I J K L M N O P Q R S T U V W X Y Z # 

Passion And The Opera Tabs

(ver. 2) Click to play this song!
Nightwish
 Rating:
4/5 (4 votes)

 Passion And The Opera lessons Tabs too difficult? Try these video lessons and learn fast
 
                Nightwish
Oceanborn
Passion and the Opera

~ =vibrato
/ =slide up
\ =slide down


1st very fast
|--------------------------------------------------|
|--------------------------------------------------|
|--------------------------------------------------|
|--------------------------------------------6-7-9-|
|-2/13\2-7-9-9-9-9-9-9-9-9-7-9-9-9-9-9-9-9-9-------|
|--------------------------------------------------|

|--------------------------------------------|
|--------------------------------------------|
|--------------------------------------------|
|--------------------------------------------|
|--7-9-9-9-9-9-9-9-9-7-9-9-9-9-9-9-9-9-------|
|---------------------------------------9-7~-|

|------------------------------------------|
|------------------------------------------|
|------------------------------------------|
|------------------------------------6-7-9-|
|--9-9-9-9-9-9-9-9-7-9-9-9-9-9-9-9-9-------|
|------------------------------------------|

|--------------------------------------------------|
|--------------------------------------------------|
|--------------------------------------------------|
|--------------------------------------6-7-9-6-7-9-|
|--7-9-9-9-9-9-9-9-9-7-9-9-9-9-9-9-9-9-------------|
|--------------------------------------------------|

|--------------------------------------------|
|--------------------------------------------|
|--------------------------------------------|
|--------------------------------------6-7-9-|
|--7-9-9-9-9-9-9-9-9-7-9-9-9-9-9-9-9-9-------|
|--------------------------------------------|

|--------------------------------------------|
|--------------------------------------------|
|--------------------------------------------|
|--------------------------------------------|
|--7-9-9-9-9-9-9-9-9-7-9-9-9-9-9-9-9-9-------|
|---------------------------------------9-7~-|

|------------------------------------------|
|------------------------------------------|
|------------------------------------------|
|------------------------------------6-7-9-|
|--9-9-9-9-9-9-9-9-7-9-9-9-9-9-9-9-9-------|
|------------------------------------------|

|--------------------------------------------------|
|--------------------------------------------------|
|--------------------------------------------------|
|--------------------------------------6-7-9-6-7-9-|
|--7-9-9-9-9-9-9-9-9-7-9-9-9-9-9-9-9-9-------------|
|--------------------------------------------------|

|--------------------------------------------|
|--------------------------------------------|
|--------------------------------------------|
|--------------------------------------6-7-9-|
|--7-9-9-9-9-9-9-9-9-7-9-9-9-9-9-9-9-9-------|
|--------------------------------------------|

|--------------------------------------------|
|--------------------------------------------|
|--------------------------------------------|
|--------------------------------------------|
|--7-9-9-9-9-9-9-9-9-7-9-9-9-9-9-9-9-9-------|
|---------------------------------------9-7~-|

|------------------------------------------|
|------------------------------------------|
|------------------------------------------|
|------------------------------------6-7-9-|
|--9-9-9-9-9-9-9-9-7-9-9-9-9-9-9-9-9-------|
|------------------------------------------|

|--------------------------------------------------|
|--------------------------------------------------|
|--------------------------------------------------|
|--------------------------------------6-7-9-6-7-9-|
|--7-9-9-9-9-9-9-9-9-7-9-9-9-9-9-9-9-9-------------|
|--------------------------------------------------|

2nd
|-------------------------------------------------|
|-------------------------------------------------|
|---------------------2----------------------4--2-|2nd
|-4-4--4-4--4-4--4-4--2----------------------4--2-|4x
|-4-4--4-4--4-4--4-4--0----------------------2--0-|
|-2-2--2-2--2-2--2-2-----2-2--2-2--2-2--2-2-------|

|------------------------------------------14-------14-16-17---14-12-|
|-14----14-12-10-9-10--5--5-17---12-12--12---------------------------|
|--------------------------------------------------------------------|
|--------------------------------------------------------------------|
|--------------------------------------------------------------------|
|--------------------------------------------------------------------|

2nd again and then:

|--------------------------------|
|--------------------------------|
|--------------------------------|2x
|-2-2--2-2-2--7--2-2--2-2-2--5-7-|
|-2-2--2-2-2--7--2-2--2-2-2--5-7-|
|-0-0--0-0-0--5--0-0--0-0-0--3-5-|

3rd very fast
|-------------------------------------------------------------|
|-------------------------------------------------------------|
|-------------------------------------------------------------|
|-----------------------------------------------------8-9-11--|
|-9-11-11-11-11-11-11-11-11-9-11-11-11-11-11-11-11-11---------|
|-------------------------------------------------------------|

|--------------------------------------------------------------|
|--------------------------------------------------------------|
|--------------------------------------------------------------|
|--------------------------------------------------------------|
|-9-11-11-11-11-11-11-11-11-9-11-11-11-11-11-11-11-11----------|
|------------------------------------------------------11-9~---|

|-------------------------------------------------------------|
|-------------------------------------------------------------|
|-------------------------------------------------------------|
|-----------------------------------------------------8-9-11--|
|-9-11-11-11-11-11-11-11-11-9-11-11-11-11-11-11-11-11---------|
|-------------------------------------------------------------|

|--------------------------------------------------------------------|
|--------------------------------------------------------------------|
|--------------------------------------------------------------------|3rd
|-----------------------------------------------------8-9-11-8-9-11--|2x
|-9-11-11-11-11-11-11-11-11-9-11-11-11-11-11-11-11-11----------------|
|--------------------------------------------------------------------|

|--------------------------------------------------|
|--------------------------------------------------|
|--------------------------------------------------|
|--------------------------------------------------|
|--------------------------------------------------|
|-7/12\0---0-0-0--0-0-0-0-0-0--0-0-0--0-0-0-0-0-0--|

|-------------------------------------------|
|-------------------------------------------|
|-------------------------------------------|
|-------------------------------------------|
|-------------------------------------------|
|---0-0-0--0-0-0-0-0-0--0-0-0--0-0-0-0-0-0--|

|-------------------------------------------------------------------|
|-------------------------------------------------------------------|
|-------------------------------------------------------------------|
|-------------------------------------------------------------------|
|-------------------------------------------------------------------|
|---4-4-4--4-4-4-4-4-4--4-4-4--4-4-4-4-4-4--7-7-7-7-5-5-5-5-4-4-4-4-|

|---------------------------------------------------------|
|---------------------------------------------------------|
|---------------------------------------------------------|
|---------------------------------------------------------|
|---------------------------------------------------------|
|-0-0-0-0-0-0-0-0-0-0-0-0-0-0-0-0-0-0-0-0-0-0-0-0-0-4-5-7-|

|-------------------------------------------|
|-------------------------------------------|
|-------------------------------------------|
|-------------------------------------------|
|-------------------------------------------|
|---0-0-0--0-0-0-0-0-0--0-0-0--0-0-0-0-0-0--|


|--------|
|--------|
|--------|
|--------|
|--------|
|-7/12\0-|

|-------------------------------------------|
|-------------------------------------------|
|-------------------------------------------|still end
|-------------------------------------------|
|-------------------------------------------|
|---0-0-0--0-0-0-0-0-0--0-0-0--0-0-0-0-0-0--|
            
Submit corrections


        Passion And The Opera lessons Hard to play? Try these video lessons and learn fast Passion And The Opera lessons
        
↑ Back to top | Tablatures and chords for acoustic guitar and electric guitar, ukulele, drums are parodies/interpretations of the original songs. You may use it for private study, scholarship, research or language learning purposes only