Home » N » Nightwish »

Nightwish - Eva Tabs

Artists:  A B C D E F G H I J K L M N O P Q R S T U V W X Y Z # 

Eva Tabs

(ver. 2) Click to play this song!
Nightwish
 Rating:
4/5 (4 votes)
                ----------------------------------------------------------------------------
                             Eva (solo) - Nightwish
----------------------------------------------------------------------------

This is the way a play Eva's solo. It's not really difficult, what's more is to imitate 
amazing sound that Emppu gets from his material! The rhythm is very hard to simulate. 
to the song and you will understand easily.
Let me know if you find mistakes!

Enjoy!

Tuning: standard

e|------10---10---9---7-----7----------------------------------------------|
B|----------------------10------7~~~~--------------------------------------|
G|-------------------------------------------------------------------------|
D|-------------------------------------------------------------------------|
A|-------------------------------------------------------------------------|
E|-------------------------------------------------------------------------|

e|-------------------------------------------------------------------------|
B|-------7---10----7----------------7--8-----------------------------------|
G|----------------------9--7--7--9-----------------------------------------|
D|-------------------------------------------------------------------------|
A|-------------------------------------------------------------------------|
E|-------------------------------------------------------------------------|

e|-------------------------------------------------------------------------|
B|--------8p-7-------------------------------------------------------------|
G|-------------9-9-11h-----------------------------------------------------|
D|---------------------9~~~~-----------------------------------------------|
A|-------------------------------------------------------------------------|
E|-------------------------------------------------------------------------|

e|-------------------------------------------------------------------------|
B|----------------------------------7--10----------------------------------|
G|--------\11-----------14-11-9--------------------------------------------|
D|-------------------------------------------------------------------------|
A|-------------------------------------------------------------------------|
E|-------------------------------------------------------------------------|

e|---------------(12)\14-12------------------------------------------------|
B|-------------------------------------------------------------------------|
G|--------x-11-x------------x-11---14+---9---7-----------------------------|
D|-------------------------------------------------------------------------|
A|-------------------------------------------------------------------------|
E|-------------------------------------------------------------------------|

e|-------------------------------------------------------------------------|
B|-------------7-10h-\12~~~-----10--12p-10---------------------------------|
G|--------7-9h-----------------------------11+~~~~-------------------------|
D|-------------------------------------------------------------------------|
A|-------------------------------------------------------------------------|
E|-------------------------------------------------------------------------|

| /  slide up
| \  slide down
| h  hammer-on
| p  pull-off
| ~  vibrato
| +  harmonic
| x  Mute note
============================================================================
            
Submit corrections

↑ Back to top | Tablatures and chords for acoustic guitar and electric guitar, ukulele, drums are parodies/interpretations of the original songs. You may use it for private study, scholarship, research or language learning purposes only