» » »

Nightwish - End Of All Hope Tabs

Artists:  A B C D E F G H I J K L M N O P Q R S T U V W X Y Z # 

End Of All Hope Tabs

(ver. 1) Click to play this song!
Nightwish
 Rating:
4/5 (4 votes)

 End Of All Hope lessons Tabs too difficult? Try these video lessons and learn fast
 
                hope you like it enjoy !!
Intro ("It is the end of all hope...")
E||-------------------------------|
B||-------------------------------|
G||-------------------------------|
D||-------------------------------|
A||--5-5-5-5---5-5-5-5-----3-3----|
E||--3-3-3-3---3-3-3-3-----1-1----|

E||-------------------------------|
B||-------------------------------|
G||------------------------7-7----|
D||------------------------7-7----|
A||--5-5-5-5---5-5-5-5-----5-5----|
E||--3-3-3-3---3-3-3-3------------|

E||-------------------------------|
B||-------------------------------|
G||-------------------------------|
D||-------------------------------|
A||--3-3-3-3---3-3-3-3-----3-3----|
E||--1-1-1-1---1-1-1-1-----1-1----|

E||-------------------------------|
B||-------------------------------|
G||------------------------3------|
D||--5-5-5-5---5-5-5-5-----1-3----|
A||--3-3-3-3---3-3-3-3-------1----|
E||-------------------------------|



Riff 1 ("This is the birth of all hope...")
E||-------------------------------------------------|
B||-------------------------------------------------|
G||-------------------------------------------------|
D||---------------------------------------5----5----|
A||--2------------------------------------3----3----|
E||--0-0-0-0-0-0-0-0-0-0-0-0-0-0-0-0-0-0------------|


E||-------------------------------------------------|
B||-------------------------------------------------|
G||---------------------------------------2----2----|
D||--7------------------------------------2----2----|
A||--5-5-5-5-5-5-5-5-5-5-5-5-5-5-5-5-5-5--0----0----|
E||-------------------------------------------------|

E||-------------------------------------------------|
B||-------------------------------------------------|
G||-------------------------------------------------|
D||---------------------------------------5----5----|
A||--2------------------------------------3----3----|
E||--0-0-0-0-0-0-0-0-0-0-0-0-0-0-0-0-0-0------------|

E||-------------------------------------------------|
B||-------------------------------------------------|
G||-------------------------------------------------|
D||--7------------------------------------2----2----|
A||--5-5-5-5-5-5-5-5-5-5-5-5-5-5-5-5-5-5--2----2----|
E||---------------------------------------0----0----|



Riff 3 (2x) (Hardest in the whole song)
E||----------------------------------------------------|
B||----------------------------------------------------|
G||----------------------------------------------------|
D||---------------------------------------------3------|
A||--5-----5---------0-1-0----5-----5-----1-0-1---1-0--|
E||--3-3-3-3-3-3-1-3-------1--3-3-3-3-3-3--------------|

E||------------------------------------------------|
B||------------------------------------------------|
G||------------------------------------------------|
D||------------------------------------------------|
A||--5---5-----------0-1-0---3--3-3-1-0-0--0---0---|
E||--3-3-3-3-3-3-1-3-------1-----------------3-----|



Riff 3 fill (in the end of the 2nd time)
E||--------------------------|
B||--------------------------|
G||--------------------------|
D||-----------------------5--|
A||--1-0---0--------------5--|
E||------3---3-1-3-3-3-3--3--|



Bridge to Verse ("No will to wake...")
E||------------------------------|
B||------------------------------|
G||------------------------7-----|
D||----------777----333----7-----|
A||---555----555----111----5-----|
E||---333------------------------|



Verse ("Angels they fell first...")
E||----------------------------------|
B||----------------------------------|
G||----------------------------------|
D||----------------------------------|
A||--5555--5555--5555--3-3-----------|
E||--3333--3333--3333--1-1-----------|

E||----------------------------------|
B||----------------------------------|
G||----------------------------------|
D||--------------------7-------------|
A||--5555--5555--5555--5-7-----------|
E||--3333--3333--3333----5-----------|

E||----------------------------------|
B||----------------------------------|
G||--------------------------3---2---|
D||--------------------------3---2---|
A||--5555--5555--5555--3-3---1---0---|
E||--3333--3333--3333--1-1-----------|


Chorus ("It is the end of all hope...")
E||----------------------------------------|
B||----------------------------------------|
G||----------------------------------------|
D||----------------------------------------|
A||--5---------5---------5---------3--3----|
E||--3-3-3-3-3-3-3-3-3-3-3-3-3-3-3-1--1----|

E||----------------------------------------|
B||----------------------------------------|
G||----------------------------------------|
D||--------------------------------7--7----|
A||--5---------5---------5---------5--5----|
E||--3-3-3-3-3-3-3-3-3-3-3-3-3-3-3---------|

E||----------------------------------------|
B||----------------------------------------|
G||----------------------------------------|
D||----------------------------------------|
A||--3---------3---------3---------3--3----|
E||--1-1-1-1-1-1-1-1-1-1-1-1-1-1-1-1--1----|

E||----------------------------------------|
B||----------------------------------------|
G||---------------------------------3------|
D||--5---------5---------5----------1--3---|
A||--3-3-3-3-3-3-3-3-3-3-3-3-3-3-3-----1---|
E||----------------------------------------|
FreakMen
            
Submit corrections


        End Of All Hope lessons Hard to play? Try these video lessons and learn fast End Of All Hope lessons
        
↑ Back to top | Tablatures and chords for acoustic guitar and electric guitar, ukulele, drums are parodies/interpretations of the original songs. You may use it for private study, scholarship, research or language learning purposes only