» » »

Nightwish - Dark Chest Of Wonders Bass

Artists:  A B C D E F G H I J K L M N O P Q R S T U V W X Y Z # 

Dark Chest Of Wonders Bass

(ver. 3) Click to play this song!
Nightwish
 Rating:
4/5 (4 votes)

 Dark Chest Of Wonders lessons Tabs too difficult? Try these video lessons and learn fast
 
                (Live)
Band: Nightwish
Bassist: Marco Hietala

INTRO 1:

F|----------------------------------------------------|
C|----------------------16-\--------------------------|
G|----------------------16-\--------------------------|
D|-2----------2---------14-\--------3-2-0-2--3-2-0-2--|


INTRO 2:

F|-------------------8---------11\-----11/14b-\------|
C|---------------7-----7-10/13------13---------------|
G|--------9(10x)---9---------------------------------|
D|-2(32x)---------------------------------------12b\-|


INTRO 3:

F|----------------------------------------------------------------------------------------------|
C|----------------------------------------------------------------------------------------------|
G|----------------------------------------------------------------------------------------------|
D|-5-2-2-3-2-2-5-2-2-3-2(6X)-5-2-2-3-2-2-5-2-2-3-2-2-2-2-3-2-0--5-2-2-3-2-2-5-2-2-3-3-6-6-5-5-3-|


BRIDGE:

F|-------------------------|
C|-------------------------|
G|-------------------3--3--|
D|-3-2-0-2--3-2-0-2--------|

PLAY: INTRO 3

BRIDGE 2:

F|--------------------|
C|--------------------|
G|-4(8x)-2(4X)-5(4X)--|
D|--------------------|

INTRO 4:

F|------------------------------------------------------------|
C|------------------------------------------------------------|
G|-0--0(8X)-2---0--0(4X)----------0--0(10X)-----------2--3--5-|
D|------------3----------3--3--3------------3--3(4X)----------|


F|------------------------------------------------------|
C|------------------------------------------------------|
G|-2--2(9X)-0-2--2(4X)-0--0--0--2--2(10X)-0-(6x)--------|
D|-----------------------------------------------0(6X)--|

RIFF 1(2X):

F|----------------|
C|----------------|
G|----------------|
D|-2(16x)-0-2-4-0-|

VERSE 1:

F|--------------------|
C|--------------------|
G|-2(16X)-------------|
D|--------3(8X)-5(8x)-|

PLAY: RIFF 1

VERSE 2:

F|---------------------|
C|---------------------|
G|-2(16X)-5(8X)-7(8x)--|
D|---------------------|

PLAY:
- INTRO 4
- RIFF 1
- VERSE 1
- RIFF 1

VERSE 3:

F|------------------------------|
C|------------------------------|
G|-2(16X)-5(8X)-0-5-4-0-5-4-----|
D|--------------------------7-5-|

CHORUS:

F|----------------------------------------------------------------------------|
C|---------------------------------------------------------7-9---7------------|
G|----------------5(15X)/7-----------------------------7-9-----9---9-7-5------|
D|-7(12x)-3-3-3-3----------0(8X)-2-2-2-3-3-3-5-5-7(5X)-------------------7-5--|


F|-----------------------------------------------------------------------------|
C|--------------------------------------------------7-7--7-7-7-9-7-------------|
G|-----------------------------------------------------------------9-7-9-7-5---|
D|-7(12x)5-5-5-5-3(8x)-0(8X)-5(16X)-2(8X)-3(8X)-5-5--------------------------7-|


FAST RIFF:

F|--------------------------------------------------------------------|
C|--------------------------------------------------------------------|
G|--------------------------------------------------------------------|
D|-5-2-2-3-2-2-5-2-2-3-2-2-2-2-2222-5-2-2-3-2-2-5-2-2-3-2-2-3-3-2222--|


F|--------------------------------------------------------------|
C|--------------------------------------------------------------|
G|--------------------------------------------------------------|
D|-5-2-2-3-2-2-5-2-2-3-2-2-2--2--5-2-2-3-2-2-2222-2-3-0-0-2--2--|

BRIDGE 3:

F|----------------------------|
C|----------------------------|
G|-------------------9999-\---|
D|-2222--2222--2222-----------|

INTERLUDE(2X):

F|--------------------------------------------------|
C|---------------------------------------------54---|
G|---------------------------------------222-3---5--|
D|-0000-0000-0000-0000-0-00001-0000-0000------------|

VERSO 4:

F|----------------------------------------------------------------------------|
C|-------------------------------------4----4-------------4--4----------------|
G|-------------------2(4X)-4-4-4-------------------------------4---2(8X)------|
D|-2(8X)-1(8X)-2(8X)-------------5-2-2----2---2-1(8X)-2-2--------4------3(8X)-|

BRIDGE 4:

F|---------------------15\-|
C|---------------------14\-|
G|---------------------13\-|
D|-0-0-0-0---0-0-0-0---12\-|

PLAY: INTERLUDE (1X)

INTERLUDE 2:

F|-----------------------------------|
C|-----------------------------76----|
G|-----------------------444-5---7\--|
D|-2(24X)-2-22223-2(14x)-------------|

CHORUS 2:

F|--------------------------------------------------------------7---7-11-9---------|
C|-------------------------------------------------------9----9---9--------12-11-9-|
G|-2(12X)---------5(15X)/7---------------------------5-9----9----------------------|
D|--------3-3-3-3----------0(8X)-2-2-2-3-3-3-5-5-7-7-------------------------------|


F|---------------------------------------------------------------------14-14-|
C|---------------------------------------------------------------------------|
G|----------------------------------4-4-4-5-5-5-7-7-9(8X)-10(8X)-12-12-------|
D|-7(12X)-5-5-5-5-3(8X)-0(8X)-5(8X)------------------------------------------|


F|-14-14-14-12-14-12----12-----------|
C|-------------------14----14-12-----|
G|-------------------------------14\-|
D|-----------------------------------|

CHORUS 3:

F|---------------------------------------------------------------------|
C|---------------------------------------------------------------------|
G|----------------7(13X)-----------------------------7(15x)-6-7-6------|
D|-9(12X)-7-7-7-7--------0-0-1-2(8X)-4-4-4-5-5-5-7-7--------------9-7--|


F|------------------------------------------------------|
C|------------------------------------------------------|
G|-4(8X)-2-2-2-2--------------2(16X)--------------------|
D|----------------5(8X)-2(8X)--------4(8X)-5(8X)-7(6X)--|


F|----------------------------6-6-\--------|
C|------9------7--------------6-6-\--------|
G|-7/10---10-9---8-7-8-6-4-4\-4-4-\--------|
D|-----------------------------------------|

Leg:
\: Slide Down
/: Slide Up
b: Bend
            
Submit corrections


        Dark Chest Of Wonders lessons Hard to play? Try these video lessons and learn fast Dark Chest Of Wonders lessons
        
↑ Back to top | Tablatures and chords for acoustic guitar and electric guitar, ukulele, drums are parodies/interpretations of the original songs. You may use it for private study, scholarship, research or language learning purposes only