» » »

Nickel Creek - Out Of The Woods Tabs

Artists:  A B C D E F G H I J K L M N O P Q R S T U V W X Y Z # 

Out Of The Woods Tabs

(ver. 2) Click to play this song!
Nickel Creek
 Rating:
4/5 (5 votes)

 Out Of The Woods lessons Tabs too difficult? Try these video lessons and learn fast
 
                -----------------------------------------------------------------------------
                OUT OF THE WOODS (Guitar Solo) – Nickel Creek
-----------------------------------------------------------------------------

Tuning: Standard

e|------------0-0-h2-2/5---2p0---0~~~~~------0---0h2--2p0---0---------------|
B|------0-2-3------------------3-3~~~~~---3----3----------3---3~~~~~--------|
G|--0-2--------------------------2~~~~~-------------------------------------|
D|--------------------------------------------------------------------------|
A|--------------------------------------------------------------------------|
E|--------------------------------------------------------------------------|

e|----------5/7/9---10p9---------------12----12/14\12-10--------------------|
B|----5-7-8--------------10---------10----10-------------10h12-12p10\8-10p8-|
G|--7-----------------------9/11-12-----------------------------------------|
D|--------------------------------------------------------------------------|
A|--------------------------------------------------------------------------|
E|--------------------------------------------------------------------------|

e|-------------|
B|-------------|
G|0------------|
D|--0----------|
A|-------------|
E|----3--------|
            
Submit corrections


        Out Of The Woods lessons Hard to play? Try these video lessons and learn fast Out Of The Woods lessons
        
↑ Back to top | Tablatures and chords for acoustic guitar and electric guitar, ukulele, drums are parodies/interpretations of the original songs. You may use it for private study, scholarship, research or language learning purposes only