» » »

Nickel Creek - Out Of The Woods Tabs

Artists:  A B C D E F G H I J K L M N O P Q R S T U V W X Y Z # 

Out Of The Woods Tabs

(ver. 3) Click to play this song!
Nickel Creek
 Rating:
4/5 (4 votes)

 Out Of The Woods lessons Tabs too difficult? Try these video lessons and learn fast
 
                 Out of the Woods 
 		by Nickel Creek (Sinead Lohan)
		

	guitar solo- Tune to DADGAD
 				D5       Aadd4
 D|----------0---------------|----5-------5-----------|
 A|-----0-2-3----------------|-5^7--6^5---5---------5-|
 G|--0-2---------------------|---------7----------7---|
 D|-0------------------------|------------------------|
 A|--------------------------|------------------------|
 D|--------------------------|------------------------|

   D5
 |-5---------------------5-7^9-|
 |-5^7-6^5----5-----5-7^8------|
 |---------7----7--7-----------|
 |-----------------------------|
 |-----------------------------|
 |-----------------------------|
 
           Aadd4
 |-10^9-----------12--12/14/12-10------|
 |-----10-------10--10-----------10^12-|
 |-------9-11^12-----------------------|
 |-------------------------------------|
 |-------------------------------------|
 |-------------------------------------|

 Gadd9

 |--------------------------------------|
 |-11^10--10----------------------------|
 |------12--12-0------------------------|
 |---------------0----------------------|
 |--------------------------------------|
 |------------------5-------------------| 


 Scott Miller
Southwestern Oklahoma State University
            
Submit corrections


        Out Of The Woods lessons Hard to play? Try these video lessons and learn fast Out Of The Woods lessons
        
↑ Back to top | Tablatures and chords for acoustic guitar and electric guitar, ukulele, drums are parodies/interpretations of the original songs. You may use it for private study, scholarship, research or language learning purposes only