» » »

Nickel Creek - Out Of The Woods Ukulele

Artists:  A B C D E F G H I J K L M N O P Q R S T U V W X Y Z # 

Out Of The Woods Ukulele

(ver. 1) Click to play this song!
Nickel Creek
 Rating:
4/5 (4 votes)

 Out Of The Woods lessons Tabs too difficult? Try these video lessons and learn fast
 
                -------------------------------------------------------------------------------
                             OUT OF THE WOODS - Nickel Creek
-------------------------------------------------------------------------------

~ Here is what makes this tab different and exciting.  I saw a lot of tabs in D.
It sounds a little superficial on one acoustic guitar.  This is the song in the key of E.
It sounds majestic, especially when you have to play it by yourself and you don't have the
luxuries of a skilled mandolin player and sound dubbing.

The Chords:
     E        A       *C#      *B       *A       C#        B       *E
e|---0---  ---0---  ---0---  ---0---  ---0---  ---0---  ---0---  ---0---
B|---0---  ---0---  ---0---  ---0---  ---0---  ---0---  ---0---  ---0---
G|---9---  ---2---  ---13--  ---11--  ---9---  ---6---  ---4---  ---4---
D|---9---  ---2---  ---11--  ---9---  ---7---  ---6---  ---4---  ---2---
A|---7---  ---0---  ---11--  ---9---  ---7---  ---4---  ---2---  ---2---
E|---0---  ---X---  ---X---  ---X---  ---X---  ---X---  ---X---  ---0---


Verse 1:
            E
I wish you out of the woods
                          *A
And into the picture with me.
            E
I wish you over the moon,
                             *A
Come out of the question and be.


Chorus:
                 *C#   *B           *A
If this is gonna run, round  in my head, I might as well be dreaming,
*C#   *B           *A
Run  round  in my head.


Verse 2:
         *E
I roller coaster for you,
                          A
Time out of mind must be heavenly.
            *E
It's all enchanted and wild,
                                A
Just like my heart said it was gonna be.


If you want to do the round (with a buddy, of course),
it sounds a little more epic if you just play
the regular walk from C# - B - A

C#    B            A
Run  Round  In my head.  I might as well be dreaming...

Just adds a little more depth.  It's a deep song, man.
You can't go playing it without depth.
It's ment to be played with almost a confident, cyclical rythem (sp?).

So I would appreciate some feedback, friends.  I'm a little new at this tabbing 
business, but I got some phresh idead.
Do people spell that with a "PH" still?
See, that's why I need feedback.

Cheers,
The Count
            
Submit corrections


        Out Of The Woods lessons Hard to play? Try these video lessons and learn fast Out Of The Woods lessons
        
↑ Back to top | Tablatures and chords for acoustic guitar and electric guitar, ukulele, drums are parodies/interpretations of the original songs. You may use it for private study, scholarship, research or language learning purposes only