» » »

Nickelback - Just For Tabs

Artists:  A B C D E F G H I J K L M N O P Q R S T U V W X Y Z # 

Just For Tabs

(ver. 3) Click to play this song!
Nickelback
 Rating:
4/5 (4 votes)

 Just For lessons Tabs too difficult? Try these video lessons and learn fast
 
                Symbols used:
X = Muted strings
h = hammer-on

Intro
e|---------------------------------------------------|
B|---------------------------------------------------|
G|--------------------------------------------------*|
D|-1-3--3--3--X--X--5-6-5-6--0-1-1---X-X-X-X-X-X-X--*|
A|-1-3--3--3--X--X--5-6-5-6--0-1-1---X-X-X-X-X-X-X---|
D|-1-3--3--3--X--X--5-6-5-6--0-1-1---X-X-X-X-X-X-X---|
                              H

e|------------------------------------------|
B|------------------------------------------|
G|------------------------------------------|
D|---3--------1--------1--------3-----------|
A|---3--------1--------1--------3-----------|
D|---3--------1--------1--------3-----------|
                           H

e|-------------------------|----------------------------------|
B|-------------------------|----------------------------------|
G|------------6--5---------|----------6--5--------------------|
D|--5-6---5----------------|-5—6--5--------------8-----8------|
A|--------------------6----|----------------6-------6-----6---|
D|-------------------------|----------------------------------|
     H                        H 

Chorus:
e|---------------------------------------------------|
B|---------------------------------------------------|
G|--------------------------------------------------*|
D|-1-3--3--3--X--X--5-6-5-6--0-1-1---X-X-X-X-X-X-X--*|
A|-1-3--3--3--X--X--5-6-5-6--0-1-1---X-X-X-X-X-X-X---|
D|-1-3--3--3--X--X--5-6-5-6--0-1-1---X-X-X-X-X-X-X---|
                              H
            
Submit corrections


        Just For lessons Hard to play? Try these video lessons and learn fast Just For lessons
        
↑ Back to top | Tablatures and chords for acoustic guitar and electric guitar, ukulele, drums are parodies/interpretations of the original songs. You may use it for private study, scholarship, research or language learning purposes only