» » »

Nickelback - Just For Tabs

Artists:  A B C D E F G H I J K L M N O P Q R S T U V W X Y Z # 

Just For Tabs

(ver. 2) Click to play this song!
Nickelback
 Rating:
4/5 (4 votes)

 Just For lessons Tabs too difficult? Try these video lessons and learn fast
 
                Just For
Nickelback
Silverside Up

(drop d tuning)

Distortion
Intro:

e----------------------------------------------------
b----------------------------------------------------
g----------------------------------------------------
d---x-x-x-x-x-x-x-x-------4-4-4-4-------6-7-6-7--2-2--2-2----------------
a---x-x-x-x-x-x-x-x-------4-4-4-4-------6-7-6-7--2-2--2-2---------------
d---x-x-x-x-x-x-x-x-------4-4-4-4-------6-7-6-7--2-2--2-2-------------


e-------------------------------------------------------
b-------------------------------------------------------
g-------------------------------------------------------
d---x-x-x-x-x-x-x-x--------4-\2-\4----------------------------------
a---x-x-x-x-x-x-x-x--------4-\2-\4-----------------------------
d---x-x-x-x-x-x-x-x--------4-\2-\4-----------------------------------


e------------------------------------------------------------------------------------------------------
b-----------------------------------------------------------------------------------------9---10--9\12----------
g--------------------6-----------7-6---------------------------9----------7-6---------7-6--------------------7-6--------
d------6h7-6--6h7-----------7-6---------6h7-6---6h7-6--------9--------6h7---------7-6--------------------7-6-------------
a-----------------------7------------7----------------7-7-7--------------------7---------------------------------7-9----------
d--------------------------------------------------------------------------------------------------------
            
Submit corrections


        Just For lessons Hard to play? Try these video lessons and learn fast Just For lessons
        
↑ Back to top | Tablatures and chords for acoustic guitar and electric guitar, ukulele, drums are parodies/interpretations of the original songs. You may use it for private study, scholarship, research or language learning purposes only