» » »

Nickelback - If Today Was Your Last Day Tabs

Artists:  A B C D E F G H I J K L M N O P Q R S T U V W X Y Z # 

If Today Was Your Last Day Tabs

(ver. 3) Click to play this song!
Nickelback
 Rating:
4/5 (4 votes)

 If Today Was Your Last Day lessons Tabs too difficult? Try these video lessons and learn fast
 
                ----------------------------------------------------------
                IF TODAY WAS YOUR LAST DAY
----------------------------------------------------------

TUNING:Half-Step Down (EbAbDbGbBbEb)

NOTE; THIS TAB IS THE ACOUSTIC PART OF THE SONG, JUST TO LET U PPL KNOW =D
I THINK THIS TAB IS 100%, WHEN U SEE THIS TAB PLZ RATE AND LEAVE COMMENTS.


INTRO:

   F#7(4)
Eb|-0------------------|
Bb|-0------------------|
Gb|-3------------------|
Db|-4------------------|
Ab|-4------------------|
Eb|-2------------------|

VERSE:

   C#m        E         Bsus
Eb|-4-------|-0--------|-0--------|
Bb|-5-------|-0--------|-0--------|
Gb|-6---x8--|-1---x8---|-4---x16--|
Db|-6-------|-2--------|-4--------|
Ab|-4-------|-2--------|-2--------|
Eb|-x-------|-0--------|-x--------|

   C#m        E         Bsus
Eb|-4-------|-0--------|-0--------|
Bb|-5-------|-0--------|-0--------|
Gb|-6---x8--|-1---x8---|-4---x16--|
Db|-6-------|-2--------|-4--------|
Ab|-4-------|-2--------|-2--------|
Eb|-x-------|-0--------|-x--------| 

   C#m        E         Bsus
Eb|-4-------|-0--------|-0--------|
Bb|-5-------|-0--------|-0--------|
Gb|-6---x8--|-1---x8---|-4---x9---| ON THIRD TIME IN EACH VERSE HOLD THE
Db|-6-------|-2--------|-4--------| LAST NOTE FOR 4 COUNTS BEFORE THE CHORUS
Ab|-4-------|-2--------|-2--------|
Eb|-x-------|-0--------|-x--------|  

CHORUS:

    A         E          B
Eb|-0-------|-0--------|-x--------|
Bb|-2-------|-0--------|-4--------|
Gb|-2---x8--|-1---x8---|-4---x16--|
Db|-2-------|-2--------|-4--------|
Ab|-0-------|-2--------|-2--------|
Eb|-x-------|-0--------|-x--------|

    A         E          B
Eb|-0-------|-0--------|-x--------|
Bb|-2-------|-0--------|-4--------|
Gb|-2---x8--|-1---x8---|-4---x8---|
Db|-2-------|-2--------|-4--------|
Ab|-0-------|-2--------|-2--------|
Eb|-x-------|-0--------|-x--------|

CHORUS ENDING:

   F#7(4)    C#m         E         Bsus
Eb|-0-------|-4--------|-0--------|-0---------|
Bb|-0-------|-5--------|-0--------|-0---------|
Gb|-3-------|-6--------|-1--------|-4---------|
Db|-4-------|-6--------|-2--------|-4---------|
Ab|-4-------|-4--------|-2--------|-2---------|
Eb|-2-------|-x--------|-0--------|-x---------|

VERSE:

   C#m        E         Bsus
Eb|-4-------|-0--------|-0--------|
Bb|-5-------|-0--------|-0--------|
Gb|-6---x8--|-1---x8---|-4---x16--|
Db|-6-------|-2--------|-4--------|
Ab|-4-------|-2--------|-2--------|
Eb|-x-------|-0--------|-x--------|

   C#m        E         Bsus
Eb|-4-------|-0--------|-0--------|
Bb|-5-------|-0--------|-0--------|
Gb|-6---x8--|-1---x8---|-4---x16--|
Db|-6-------|-2--------|-4--------|
Ab|-4-------|-2--------|-2--------|
Eb|-x-------|-0--------|-x--------| 

   C#m        E         Bsus
Eb|-4-------|-0--------|-0--------|
Bb|-5-------|-0--------|-0--------|
Gb|-6---x8--|-1---x8---|-4---x9---| 
Db|-6-------|-2--------|-4--------| 
Ab|-4-------|-2--------|-2--------|
Eb|-x-------|-0--------|-x--------|

CHORUS:

    A         E          B
Eb|-0-------|-0--------|-x--------|
Bb|-2-------|-0--------|-4--------|
Gb|-2---x8--|-1---x8---|-4---x16--|
Db|-2-------|-2--------|-4--------|
Ab|-0-------|-2--------|-2--------|
Eb|-x-------|-0--------|-x--------|

    A         E          B
Eb|-0-------|-0--------|-x--------|
Bb|-2-------|-0--------|-4--------|
Gb|-2---x8--|-1---x8---|-4---x8---|
Db|-2-------|-2--------|-4--------|
Ab|-0-------|-2--------|-2--------|
Eb|-x-------|-0--------|-x--------|

INTERLUDE:

   Bsus       A          E          B
Eb|-0-------|-0--------|-0--------|-x--------|
Bb|-0-------|-2--------|-0--------|-4--------|
Gb|-4---x8--|-2---x8---|-1---x8---|-4---x16--|
Db|-4-------|-2--------|-2--------|-4--------|
Ab|-2-------|-0--------|-2--------|-2--------|
Eb|-x-------|-x--------|-0--------|-x--------|

    A         E          B         F#7(4)
Eb|-0-------|-0--------|-x--------|-0--------|
Bb|-2-------|-0--------|-4--------|-0--------| HOLD LAST CHORD FOR 8 COUNTS
Gb|-2---x8--|-1---x8---|-4---x8---|-3--------|
Db|-2-------|-2--------|-4--------|-4--------|
Ab|-0-------|-2--------|-2--------|-4--------|
Eb|-x-------|-0--------|-x--------|-2--------|

BEFORE BRIDGE:

   F#5
Eb|-x------------------|
Bb|-x------------------|
Gb|-x-----x9-----------|
Db|-4------------------|
Ab|-4------------------|
Eb|-2------------------|

BRIDGE:

    E         Bsus       F#
Eb|-0--------|-0--------|-2--------|
Bb|-0--------|-0--------|-2--------|
Gb|-1---x8---|-4---x8---|-3---x16--|
Db|-2--------|-4--------|-4--------|
Ab|-2--------|-2--------|-4--------|
Eb|-0--------|-x--------|-2--------|

    E         Bsus       F#
Eb|-0--------|-0--------|-2--------|
Bb|-0--------|-0--------|-2--------|
Gb|-1---x8---|-4---x8---|-3---x16--|
Db|-2--------|-4--------|-4--------|
Ab|-2--------|-2--------|-4--------|
Eb|-0--------|-x--------|-2--------|

    E         Bsus       F#
Eb|-0--------|-0--------|-2--------|
Bb|-0--------|-0--------|-2--------|
Gb|-1---x8---|-4---x8---|-3---x16--|
Db|-2--------|-4--------|-4--------|
Ab|-2--------|-2--------|-4--------|
Eb|-0--------|-x--------|-2--------|

CHORUS:

   A2         E          B
Eb|-0-------|-0--------|-x--------|
Bb|-0-------|-0--------|-4--------|
Gb|-2-------|-1--------|-4--------|
Db|-2-------|-2--------|-4--------|
Ab|-0-------|-2--------|-2--------|
Eb|-x-------|-0--------|-x--------|

    A         E          B
Eb|-0-------|-0--------|-x--------|
Bb|-2-------|-0--------|-4--------|
Gb|-2-------|-1--------|-4--------|
Db|-2-------|-2--------|-4--------|
Ab|-0-------|-2--------|-2--------|
Eb|-x-------|-0--------|-x--------|

    A         E          B
Eb|-0-------|-0--------|-x--------|
Bb|-2-------|-0--------|-4--------|
Gb|-2---x8--|-1---x8---|-4---x16--|
Db|-2-------|-2--------|-4--------|
Ab|-0-------|-2--------|-2--------|
Eb|-x-------|-0--------|-x--------|

    A         E          B
Eb|-0-------|-0--------|-x--------|
Bb|-2-------|-0--------|-4--------|
Gb|-2---x8--|-1---x8---|-4---x8---|
Db|-2-------|-2--------|-4--------|
Ab|-0-------|-2--------|-2--------|
Eb|-x-------|-0--------|-x--------|

ENDING:

F#7(4)
Eb|-0------------------|
Bb|-0------------------|
Gb|-3------------------|
Db|-4------------------|
Ab|-4------------------|
Eb|-2------------------|
            
Submit corrections


        If Today Was Your Last Day lessons Hard to play? Try these video lessons and learn fast If Today Was Your Last Day lessons
        
↑ Back to top | Tablatures and chords for acoustic guitar and electric guitar, ukulele, drums are parodies/interpretations of the original songs. You may use it for private study, scholarship, research or language learning purposes only