» » »

Nickelback - If Today Was Your Last Day Tabs

Artists:  A B C D E F G H I J K L M N O P Q R S T U V W X Y Z # 

If Today Was Your Last Day Tabs

(ver. 1) Click to play this song!
Nickelback
 Rating:
4/5 (4 votes)

 If Today Was Your Last Day lessons Tabs too difficult? Try these video lessons and learn fast
 
                -------------------------------------------------------------------------------
-------------------------------------------------------------------------------

Tuning: Down Half Step

I learnt this on the acoustic and have written the chords the way I've played them.
If using an electric not all the notes of the chords are hit when strumming.

Listen to the song to get the strumming correct. Most of the chords are played the same 
the ones used in their song "Photograph" with the high E & B ringing out slightly.

Please Note:- The B chord used throughout the song can be played in either the 7th fret 
as tabbed, or in the 2nd fret position, as shown below. I preffered it in the 7th position.

e|---0---|
B|---0---|
G|---4---|
D|---4---|
A|---2---|
E|---0---|

-------------------------------------------------------------------------------
-------------------------------------------------------------------------------


Intro Chord

   F#
e|-0------------------|
B|-0------------------|
G|-3------------------|
D|-4------------------|
A|-4------------------|
E|-2------------------|

Verse x 3

   C#                 E                  B                 B

e|-0----------------|-0----------------|-0---------------|-0-----------------|
B|-0----------------|-0----------------|-0---------------|-0-----------------|
G|-6----------------|-9----------------|-8---------------|-8-----------------|
D|-6----------------|-9----------------|-9---------------|-9-----------------|
A|-4----------------|-7----------------|-9---------------|-9-----------------|
E|-0----------------|-0----------------|-7---------------|-7-----------------|

First Chorus

   A                  E                  B                 B

e|-0----------------|-0----------------|-0---------------|-0-----------------|
B|-0----------------|-0----------------|-0---------------|-0-----------------|
G|-6----------------|-9----------------|-8---------------|-8-----------------|
D|-7----------------|-9----------------|-9---------------|-9-----------------|
A|-7----------------|-7----------------|-9---------------|-9-----------------|
E|-5----------------|-0----------------|-7---------------|-7-----------------|

   A                  E                  B                 B
e|-0----------------|-0----------------|-0---------------|-0-----------------|
B|-0----------------|-0----------------|-0---------------|-0-----------------|
G|-6----------------|-9----------------|-8---------------|-3-----------------|
D|-7----------------|-9----------------|-9---------------|-4-----------------|
A|-7----------------|-7----------------|-9---------------|-4-----------------|
E|-5----------------|-0----------------|-7---------------|-2-----------------|


After Chorus

   C#                 E                  B                 B

e|-0----------------|-0----------------|-0---------------|-0-----------------|
B|-0----------------|-0----------------|-0---------------|-0-----------------|
G|-6----------------|-9----------------|-8---------------|-6-----------------|
D|-6----------------|-9----------------|-9---------------|-9-----------------|
A|-4----------------|-7----------------|-9---------------|-9-----------------|
E|-0----------------|-0----------------|-7---------------|-7-----------------|

e|----------7--------------------7---------------------------4---------------|
B|-----5---------5---5/7------5------5---5/7---------------------5----7------|
G|------------------------------------------------------------------------6--|
D|---------------------------------------------------------------------------|
A|---------------------------------------------------------------------------|
E|---------------------------------------------------------------------------|


Verse x 4


Second Chorus

   A                  E                  B                 B

e|-0----------------|-0----------------|-0---------------|-0-----------------|
B|-0----------------|-0----------------|-0---------------|-0-----------------|
G|-6----------------|-9----------------|-8---------------|-8-----------------|
D|-7----------------|-9----------------|-9---------------|-9-----------------|
A|-7----------------|-7----------------|-9---------------|-9-----------------|
E|-5----------------|-0----------------|-7---------------|-7-----------------| x3

   A                  E                  B                 B

e|-0----------------|-0----------------|-0---------------|-0-----------------|
B|-0----------------|-0----------------|-0---------------|-0-----------------|
G|-6----------------|-9----------------|-8---------------|-3-----------------|
D|-7----------------|-9----------------|-9---------------|-4-----------------|
A|-7----------------|-7----------------|-9---------------|-4-----------------|
E|-5----------------|-0----------------|-7---------------|-2-----------------|


Bridge x 4
   E                  B                  F#                F#

e|-0----------------|-0----------------|-0---------------|-0-----------------|
B|-0----------------|-0----------------|-0---------------|-0-----------------|
G|-1----------------|-4----------------|-3---------------|-3-----------------|
D|-2----------------|-4----------------|-4---------------|-4-----------------|
A|-2----------------|-2----------------|-4---------------|-4-----------------|
E|-0----------------|-0----------------|-2---------------|-2-----------------|


Repeat Chorus

   A                  E                  B                 B

e|-0----------------|-0----------------|-0---------------|-0-----------------|
B|-0----------------|-0----------------|-0---------------|-0-----------------|
G|-6----------------|-9----------------|-8---------------|-8-----------------|
D|-7----------------|-9----------------|-9---------------|-9-----------------|
A|-7----------------|-7----------------|-9---------------|-9-----------------|
E|-5----------------|-0----------------|-7---------------|-7-----------------|

Outro Chord

   F#

e|-0------------------|
B|-0------------------|
G|-3------------------|
D|-4------------------|
A|-4------------------|
E|-2------------------|

| /  slide up
| \  slide down
| h  hammer-on
| p  pull-off
| ~  vibrato
| +  harmonic
| x  Mute note
===============================================================================
            
Submit corrections


        If Today Was Your Last Day lessons Hard to play? Try these video lessons and learn fast If Today Was Your Last Day lessons
        
↑ Back to top | Tablatures and chords for acoustic guitar and electric guitar, ukulele, drums are parodies/interpretations of the original songs. You may use it for private study, scholarship, research or language learning purposes only