» » »

Nickelback - If Everyone Cared Tabs

Artists:  A B C D E F G H I J K L M N O P Q R S T U V W X Y Z # 

If Everyone Cared Tabs

(ver. 1) Click to play this song!
Nickelback
 Rating:
4/5 (4 votes)

 If Everyone Cared lessons Tabs too difficult? Try these video lessons and learn fast
 
                Nickelback - If Everyone Cared (Solo)


E|---------------------------------------------2--5--7----------|
B|---------------------------------------2--5-------------------|
G|--------2--4--------2--4br----4--2--4---------------------14--|
D|--2--4--------2--4------------------------------------16------|
A|--------------------------------------------------------------|
D|--------------------------------------------------------------|

E|------------------------------|
B|----14------------------------|
G|16----------14--16--16br----16|
D|--------16--------------------|
A|------------------------------|
D|------------------------------|

---------------
br - bendRelease
            
Submit corrections


        If Everyone Cared lessons Hard to play? Try these video lessons and learn fast If Everyone Cared lessons
        
↑ Back to top | Tablatures and chords for acoustic guitar and electric guitar, ukulele, drums are parodies/interpretations of the original songs. You may use it for private study, scholarship, research or language learning purposes only