» » »

Nickelback - If Everyone Cared Tabs

Artists:  A B C D E F G H I J K L M N O P Q R S T U V W X Y Z # 

If Everyone Cared Tabs

(ver. 3) Click to play this song!
Nickelback
 Rating:
4/5 (4 votes)

 If Everyone Cared lessons Tabs too difficult? Try these video lessons and learn fast
 
                Tuning: Open D (D A D G B E)

Intro/Couplets (Clean)
|-----------------------------------|
|-----------------------------------|
|-----------------------------------|
|---5-7--8--8-10--8--3-5--5--5-7--5-|
|--5-5-5---8-8--8---3-3-3---5-5--5--|
|-5-----5-8------8-3-----3-5----5---|

Pré Chorus (Clean)
|-------------------10--------10----|
|-------11-10-----------------------|
|-----12---------10--------12-------|
|---12---------10--------12---------|
|-10----------8--------10-----------|
|-----------------------------------|

Chorus (Distortion)
|----------------------------------|
|----------------------------------|
|----------------------------------|
|-5--8--3--5--5--8--3~-------------|
|-5--8--3--5--5--8--3~-------------|
|-5--8--3--5--5--8--3~-------------|

1ère Partie du 2ème Couplet (Distortion)
|---------------------------------------------------|
|---------------------------------------------------|
|---------------------------------------------------|
|---------7-8----------10-8----------5----------7-5-|
|-------5------------8-------------3----------5-----|
|-5-5-5--------8-8-8---------3-3-3------5-5-5-------| (Jouer ces notes en "étouffé")

Solo (Distortion)
|---------------------------3-6-7/8---6-8-10---6-8-10-8~-|
|-------3-------3-------3-6---------8--------8-----------|
|---3-5-----3-5---5-3-5----------------------------------|
|-5-------5----------------------------------------------|
|--------------------------------------------------------|
|--------------------------------------------------------|
            
Submit corrections


        If Everyone Cared lessons Hard to play? Try these video lessons and learn fast If Everyone Cared lessons
        
↑ Back to top | Tablatures and chords for acoustic guitar and electric guitar, ukulele, drums are parodies/interpretations of the original songs. You may use it for private study, scholarship, research or language learning purposes only