» » »

New Found Glory - Your Biggest Mistake Tabs

Artists:  A B C D E F G H I J K L M N O P Q R S T U V W X Y Z # 

Your Biggest Mistake Tabs

(ver. 1) Click to play this song!
New Found Glory
 Rating:
4/5 (4 votes)

 Your Biggest Mistake lessons Tabs too difficult? Try these video lessons and learn fast
 
                New Found Glory - Your Biggest Mistake
Catalyst

this is an awesome song, and i thank GuitarMaster41 for his tab that i built off of.
i put all the beats and measures in correctly, so hopefully you will get a better feel
for all the timing. just read the tab the whole way through. drop d tuning. both guitar
parts are tabbed in the double staff.

 Key:

 / - slide up
 \ - slide down
 . - palm-mute
 x - left hand mute
 + - harmonic
(5)- ghost note
 v - vibrato
 ~ - let it ring

---------------------------------------------------------------------------------
Intro


   1 + 2 + 3 +   1 + 2 + 3 +   1 + 2 + 3 +   1 + 2 + 3 + 
E|-------------|-------------|-------5-----|-------5-----|
B|-------------|-5---------5-|---------5---|---------5---|
G|-------------|---5---------|-----------5-|-----------5-|
D|-------------|-----5-------|---7-5-------|---7-5-------|
A|-------------|-------7-7---|-7-----------|-7-----------|
D|-2-2-2-2-2-2-|-------------|-------------|-------------|
 | . . . . . .   + + + + + +   + + + + + +   + + + + + + 
 |
 | 1 + 2 + 3 +   1 + 2 + 3 +   1 + 2 + 3 +   1 + 2 + 3 + 
E|-------------|-------------|-------------|-------------|
B|-------------|-------------|-------------|-------------|
G|-------------|-------------|-------------|-------------|
D|-------------|-------------|-------------|-------------|
A|-------------|-------------|-------------|-------------|
D|-------------|-------------|-------------|-------------|


   1 + 2 + 3 +   1 + 2 + 3 +  
E|-------5-----|-------5-----|
B|---------5---|---------5---|
G|-----------5-|-------------|
D|---7-5-------|---7-5-------|
A|-7-----------|-7-----------|
D|-------------|-------------|
 | + + + + + +   + + + + + 
 |
 | 1 + 2 + 3 +   1 + 2 + 3 + 
E|-------------|-------------|
B|-------------|-------------|
G|-------------|-------------|
D|-------------|-------------|
A|-------------|-------0-0---|
D|-------------|-------0-0---|
                       . .

   1 + 2 + 3 +   1 + 2 + 3 +   1 + 2 + 3 +   1 + 2 + 3 + 
E|-------------|-------------|-------------|-------------|
B|-------------|-------------|-------------|-------------|
G|-13/14-13/14-|-11--9---9---|-13/14-13/14-|-11--13--9---|
D|--x/-x--x/-x-|--x--x---x---|--x/-x--x/-x-|--x---x--x---|
A|-11/12-11/12-|--9--7---7---|-11/12-11/12-|--9--11--7---|
D|-------------|-------------|-------------|-------------|
 |
 |
 | 1 + 2 + 3 +   1 + 2 + 3 +   1 + 2 + 3 +   1 + 2 + 3 + 
E|-------------|-------------|-------------|-------------|
B|-------------|-------------|-------------|-------------|
G|-------------|-6---2---x-x-|-------------|-6---2---x-x-|
D|-2---6---x-x-|-6---2---x-x-|-2---6---x-x-|-6---2---x-x-|
A|-2---6---x-x-|-4---0---x-x-|-2---6---x-x-|-4---0---x-x-|
D|-2---6---x-x-|-------------|-2---6---x-x-|-------------|


   1 + 2 + 3 +   1 + 2 + 3 +   1 + 2 + 3 +   1 + 2 + 3 + 
E|-------------|-------------|-------------|-------------|
B|-------------|-------------|-------------|-------------|
G|-13/14-13/14-|-11--9---9---|-13/14-13/14-|-11--13--9---|
D|--x/-x--x/-x-|--x--x---x---|--x/-x--x/-x-|--x---x--x---|
A|-11/12-11/12-|--9--7---7---|-11/12-11/12-|--9--11--7---|
D|-------------|-------------|-------------|-------------|
 |
 |
 | 1 + 2 + 3 +   1 + 2 + 3 +   1 + 2 + 3 +   1 + 2 + 3 + 
E|-------------|-------------|-------------|-------------|
B|-------------|-------------|-------------|-------------|
G|-------------|-6---2---x-x-|-------------|-6---2---x-x-|
D|-2---6---x-x-|-6---2---x-x-|-2---6---x-x-|-6---2---x-x-|
A|-2---6---x-x-|-4---0---x-x-|-2---6---x-x-|-4---0---x-x-|
D|-2---6---x-x-|-------------|-2---6---x-x-|-------------|


   1 + 2 + 3 +   1 + 2 + 3 +   1 + 2 + 3 +   1 + 2 + 3 + 
E|-------------|-------------|-------------|-------------|
B|-------------|-------------|-------------|-------------|
G|-------------|-------------|-------------|-------------|
D|-------------|-------------|-------------|-------------|
A|-7/--17171717|-171717171717|-171717171717|-171717171717|
D|-------------|-------------|-------------|-------------|
 |     + + + +   + + + + + +   + + + + + +   + + + + + +
 |
 | 1 + 2 + 3 +   1 + 2 + 3 +   1 + 2 + 3 +   1 + 2 + 3 + 
E|-------------|-------------|-------------|-------------|
B|-------------|-------------|-------------|-------------|
G|-----1---1---|-----1---1---|-----1---1---|-----1---1---|
D|---2---2---2-|---2---2---2-|---2---2---2-|---2---2---2-|
A|-2-----------|-0-----------|-2-----------|-0-----------|
D|-------------|-------------|-------------|-------------|


Verse


   1 + 2 + 3 + 4 +   1 + 2 + 3 + 4 +   1 + 2 + 3 + 4 +   1 + 2 + 3 + 4 +
E|-----------------|-----------------|-----------------|-----------------|
B|-----------------|-----------------|-----------------|-----------------|
G|-----------------|-6---------------|-7---------------|-----------------|
D|-2---------------|-6---6-6-6-6-6-0-|-7---7-7-7-7-7-0-|-7---7---7---7---|
A|-2---2-2-2-2-2-0-|-4---4-4-4-4-4-0-|-5---5-5-5-5-5-0-|-7---7---7---7---|
D|-2---2-2-2-2-2-0-|-----------------|-----------------|-7---7---7---7---|
 |     . . . .           . . . .           . . . . 
 |
 | 1 + 2 + 3 + 4 +   1 + 2 + 3 + 4 +   1 + 2 + 3 + 4 +   1 + 2 + 3 + 4 +
E|-----------------|-----------------|-----------------|-----------------|
B|-----------------|-----------------|-----------------|-----------------|
G|-----------------|-6---------------|-7---------------|-----------------|
D|-2---------------|-6---6-6-6-6-6-0-|-7---7-7-7-7-7-0-|-7---7---7---7---|
A|-2---2-2-2-2-2-0-|-4---4-4-4-4-4-0-|-5---5-5-5-5-5-0-|-7---7---7---7---|
D|-2---2-2-2-2-2-0-|-----------------|-----------------|-7---7---7---7---|
       . . . .           . . . .           . . . . 


   1 + 2 + 3 + 4 +   1 + 2 + 3 + 4 +   1 + 2 + 3 + 4 +   1 + 2 + 3 + 4 +
E|-----------------|-----------------|-----------------|-----------------|
B|-----------------|-----------------|-----------------|-----------------|
G|-----------------|-6---------------|-7---------------|-----------------|
D|-2---------------|-6---6-6-6-6-6-0-|-7---7-7-7-7-7-0-|-7---7---7---7---|
A|-2---2-2-2-2-2-0-|-4---4-4-4-4-4-0-|-5---5-5-5-5-5-0-|-7---7---7---7---|
D|-2---2-2-2-2-2-0-|-----------------|-----------------|-7---7---7---7---|
 |     . . . .           . . . .           . . . . 
 |
 | 1 + 2 + 3 + 4 +   1 + 2 + 3 + 4 +   1 + 2 + 3 + 4 +   1 + 2 + 3 + 4 +
E|-----------------|-----------------|-----------------|-----------------|
B|-----------------|-----------------|-----------------|-----------------|
G|-----------------|-6---------------|-7---------------|-----------------|
D|-2---------------|-6---6-6-6-6-6-0-|-7---7-7-7-7-7-0-|-7---7---7---7---|
A|-2---2-2-2-2-2-0-|-4---4-4-4-4-4-0-|-5---5-5-5-5-5-0-|-7---7---7---7---|
D|-2---2-2-2-2-2-0-|-----------------|-----------------|-7---7---7---7---|
       . . . .           . . . .           . . . . 


   1 + 2 + 3 + 4 +   1 + 2 + 3 + 4 +   1 + 2 + 3 + 4 +   1 + 2 + 3 + 4 +
E|-----------------|-----------------|-----------------|-----------------|
B|-----------------|-----------------|-----------------|-----------------|
G|-----------------|-6---6-6---6-6---|-7---7-7---7-7---|-----------------|
D|-2---2-2---2-2-0-|-6---6-6---6-6-0-|-7---7-7---7-7-0-|-7-7-7-7-7-7-7-7-|
A|-2---2-2---2-2-0-|-4---4-4---4-4-0-|-5---5-5---5-5-0-|-7-7-7-7-7-7-7-7-|
D|-2---2-2---2-2-0-|-----------------|-----------------|-7-7-7-7-7-7-7-7-|
 |
 |
 | 1 + 2 + 3 + 4 +   1 + 2 + 3 + 4 +   1 + 2 + 3 + 4 +   1 + 2 + 3 + 4 +
E|-----------------|-----------------|-----------------|-----------------|
B|-----------------|-----------------|-----------------|-----------------|
G|-----------------|-6---6-6---6-6---|-7---7-7---7-7---|-----------------|
D|-2---2-2---2-2-0-|-6---6-6---6-6-0-|-7---7-7---7-7-0-|-7-7-7-7-7-7-7-7-|
A|-2---2-2---2-2-0-|-4---4-4---4-4-0-|-5---5-5---5-5-0-|-7-7-7-7-7-7-7-7-|
D|-2---2-2---2-2-0-|-----------------|-----------------|-7-7-7-7-7-7-7-7-|


   1 + 2 + 3 + 4 +   1 + 2 + 3 + 4 +   1 + 2 + 3 + 4 +   1 + 2 + 3 + 4 +
E|-----------------|-----------------|-----------------|-----------------|
B|-----------------|-----------------|-----------------|-----------------|
G|-----------------|-6---6-6---6-6---|-7---7-7---7-7---|-----------------|
D|-2---2-2---2-2-0-|-6---6-6---6-6-0-|-7---7-7---7-7-0-|-7-7-7-7-7-7-7-7-|
A|-2---2-2---2-2-0-|-4---4-4---4-4-0-|-5---5-5---5-5-0-|-7-7-7-7-7-7-7-7-|
D|-2---2-2---2-2-0-|-----------------|-----------------|-7-7-7-7-7-7-7-7-|
 |
 |
 | 1 + 2 + 3 + 4 +   1 + 2 + 3 + 4 +   1 + 2 + 3 + 4 +   1 + 2 + 3 + 4 +
E|-----------------|-----------------|-----------------|-----------------|
B|-----------------|-----------------|-----------------|-----------------|
G|-----------------|-6---6-6---6-6---|-7---7-7---7-7---|-----------------|
D|-2---2-2---2-2-0-|-6---6-6---6-6-0-|-7---7-7---7-7-0-|-7-7-7-7-7-7-7-7-|
A|-2---2-2---2-2-0-|-4---4-4---4-4-0-|-5---5-5---5-5-0-|-7-7-7-7-7-7-7-7-|
D|-2---2-2---2-2-0-|-----------------|-----------------|-7-7-7-7-7-7-7-7-|


Chorus


   1 + 2 + 3 +   1 + 2 + 3 +   1 + 2 + 3 +   1 + 2 + 3 + 
E|-------------|-------------|-------------|-------------|
B|-------------|-------------|-------------|-------------|
G|-------------|-6---x-2-2-x-|-------------|-------------|
D|-2---x-6-6-x-|-6---x-2-2-x-|-2---x-6-6-x-|-------------|
A|-2---x-6-6-x-|-4---x-0-0-x-|-2---x-6-6-x-|-9---11--9---|
D|-2---x-6-6-x-|-------------|-2---x-6-6-x-|-------------|
 |
 |
 | 1 + 2 + 3 +   1 + 2 + 3 +   1 + 2 + 3 +   1 + 2 + 3 + 
E|-------------|-------------|-------------|-------------|
B|-------------|-------------|-------------|-------------|
G|-------------|-6---x-2-2-x-|-------------|-6---9---9-x-|
D|-2---x-6-6-x-|-6---x-2-2-x-|-2---x-6-6-x-|-6---9---9-x-|
A|-2---x-6-6-x-|-4---x-0-0-x-|-2---x-6-6-x-|-4---7---7-x-|
D|-2---x-6-6-x-|-------------|-2---x-6-6-x-|-------------|


   1 + 2 + 3 +   1 + 2 + 3 +   1 + 2 + 3 +   1 + 2 + 3 + 
E|-------------|-------------|-------------|-------------|
B|-------------|-------------|-------------|-------------|
G|-------------|-6---x-2-2-x-|-6---x-8-8-x-|-9---x1111-x-|
D|-----x-6-6-x-|-6---x-2-2-x-|-x---x-x-x-x-|-x---x-x-x-x-|
A|-7\--x-6-6-x-|-4---x-0-0-x-|-4---x-6-6-x-|-7---x-9-9-x-|
D|-----x-6-6-x-|-------------|-------------|-------------|
 |
 |
 | 1 + 2 + 3 +   1 + 2 + 3 +   1 + 2 + 3 +   1 + 2 + 3 + 
E|-------------|-------------|-------------|-------------|
B|-------------|-------------|-------------|-------------|
G|-------------|-6---x-2-2-x-|-------------|-------------|
D|-2---x-6-6-x-|-6---x-2-2-x-|-4---x-6-6-x-|-7---x-9-9-x-|
A|-2---x-6-6-x-|-4---x-0-0-x-|-4---x-6-6-x-|-7---x-9-9-x-|
D|-2---x-6-6-x-|-------------|-4---x-6-6-x-|-7---x-9-9-x-|


   1 + 2 + 3 +   1 + 2 + 3 +   1 + 2 + 3 +   1 + 2 + 3 + 
E|-------------|-------------|-------------|-------------|
B|-------------|-------------|-------------|-------------|
G|-------------|-6---x-2-2-x-|-------------|-------------|
D|-2---x-6-6-x-|-6---x-2-2-x-|-2---x-6-6-x-|-------------|
A|-2---x-6-6-x-|-4---x-0-0-x-|-2---x-6-6-x-|-9---11--9---|
D|-2---x-6-6-x-|-------------|-2---x-6-6-x-|-------------|
 |
 |
 | 1 + 2 + 3 +   1 + 2 + 3 +   1 + 2 + 3 +   1 + 2 + 3 + 
E|-------------|-------------|-------------|-------------|
B|-------------|-------------|-------------|-------------|
G|-------------|-6---x-2-2-x-|-------------|-6---9---9-x-|
D|-2---x-6-6-x-|-6---x-2-2-x-|-2---x-6-6-x-|-6---9---9-x-|
A|-2---x-6-6-x-|-4---x-0-0-x-|-2---x-6-6-x-|-4---7---7-x-|
D|-2---x-6-6-x-|-------------|-2---x-6-6-x-|-------------|


   1 + 2 + 3 +   1 + 2 + 3 +   1 + 2 + 3 +   1 + 2 + 3 + 
E|-------------|-------------|-------------|-------------|
B|-------------|-------------|-------------|-------------|
G|-------------|-6---x-2-2-x-|-6---x-8-8-x-|-9---x1111-x-|
D|-----x-6-6-x-|-6---x-2-2-x-|-x---x-x-x-x-|-x---x-x-x-x-|
A|-7\--x-6-6-x-|-4---x-0-0-x-|-4---x-6-6-x-|-7---x-9-9-x-|
D|-----x-6-6-x-|-------------|-------------|-------------|
 |
 |
 | 1 + 2 + 3 +   1 + 2 + 3 +   1 + 2 + 3 +   1 + 2 + 3 + 
E|-------------|-------------|-------------|-------------|
B|-------------|-------------|-------------|-------------|
G|-------------|-6---x-2-2-x-|-------------|-------------|
D|-2---x-6-6-x-|-6---x-2-2-x-|-4---x-6-6-x-|-7---x-9-9-x-|
A|-2---x-6-6-x-|-4---x-0-0-x-|-4---x-6-6-x-|-7---x-9-9-x-|
D|-2---x-6-6-x-|-------------|-4---x-6-6-x-|-7---x-9-9-x-|


   1 + 2 + 3 + 4 + 
E|-----------------|
B|-----------------|
G|-----------------|
D|-----------------|
A|-----------------|
D|-----------------|
 |
 |
 | 1 + 2 + 3 + 4 +
E|-----------------|
B|-----------------|
G|-----------------|
D|-2---2-2-2-2-2-2-|
A|-2---2-2-2-2-2-2-|
D|-2---2-2-2-2-2-2-|
       . . . . . . 
    
Verse


   1 + 2 + 3 + 4 +   1 + 2 + 3 + 4 +   1 + 2 + 3 + 4 +   1 + 2 + 3 + 4 +
E|-----------------|-----------------|-----------------|-----------------|
B|-----------------|-----------------|-----------------|-----------------|
G|-----------------|-----------------|-----------------|-----------------|
D|-2---2~----------|(2)--------------|(2)--------------|-7---7---7---7---|
A|-2---2~----------|(2)--------------|(2)--------------|-7---7---7---7---|
D|-2---2~----------|(2)--------------|(2)--------------|-7---7---7---7---|
 |
 |
 | 1 + 2 + 3 + 4 +   1 + 2 + 3 + 4 +   1 + 2 + 3 + 4 +   1 + 2 + 3 + 4 +
E|-----------------|-----------------|-----------------|-----------------|
B|-----------------|-----------------|-----------------|-----------------|
G|-----------------|-----------------|-----------------|-----------------|
D|-2---2~----------|(2)--------------|(2)--------------|-7---7---7---7---|
A|-2---2~----------|(2)--------------|(2)--------------|-7---7---7---7---|
D|-2---2~----------|(2)--------------|(2)--------------|-7---7---7---7---|


   1 + 2 + 3 + 4 +   1 + 2 + 3 + 4 +   1 + 2 + 3 + 4 +   1 + 2 + 3 + 4 +
E|-----------------|-----------------|-----------------|-----------------|
B|-----------------|-----------------|-----------------|-----------------|
G|-----------------|-6---------------|-7---------------|-----------------|
D|-2---------------|-6---6-6-6-6-6-0-|-7---7-7-7-7-7-0-|-7---7---7---7---|
A|-2---2-2-2-2-2-0-|-4---4-4-4-4-4-0-|-5---5-5-5-5-5-0-|-7---7---7---7---|
D|-2---2-2-2-2-2-0-|-----------------|-----------------|-7---7---7---7---|
 |     . . . .           . . . .           . . . . 
 |
 | 1 + 2 + 3 + 4 +   1 + 2 + 3 + 4 +   1 + 2 + 3 + 4 +   1 + 2 + 3 + 4 +
E|-----------------|-----------------|-----------------|-----------------|
B|-----------------|-----------------|-----------------|-----------------|
G|-----------------|-6---------------|-7---------------|-----------------|
D|-2---------------|-6---6-6-6-6-6-0-|-7---7-7-7-7-7-0-|-7---7---7---7---|
A|-2---2-2-2-2-2-0-|-4---4-4-4-4-4-0-|-5---5-5-5-5-5-0-|-7---7---7---7---|
D|-2---2-2-2-2-2-0-|-----------------|-----------------|-7---7---7---7---|
       . . . .           . . . .           . . . . 


   1 + 2 + 3 + 4 +   1 + 2 + 3 + 4 +   1 + 2 + 3 + 4 +   1 + 2 + 3 + 4 +
E|-----------------|-----------------|-----------------|-----------------|
B|-----------------|-----------------|-----------------|-----------------|
G|-----------------|-6---6-6---6-6---|-7---7-7---7-7---|-----------------|
D|-2---2-2---2-2-0-|-6---6-6---6-6-0-|-7---7-7---7-7-0-|-7-7-7-7-7-7-7-7-|
A|-2---2-2---2-2-0-|-4---4-4---4-4-0-|-5---5-5---5-5-0-|-7-7-7-7-7-7-7-7-|
D|-2---2-2---2-2-0-|-----------------|-----------------|-7-7-7-7-7-7-7-7-|
 |
 |
 | 1 + 2 + 3 + 4 +   1 + 2 + 3 + 4 +   1 + 2 + 3 + 4 +   1 + 2 + 3 + 4 +
E|-----------------|-----------------|-----------------|-----------------|
B|-----------------|-----------------|-----------------|-----------------|
G|-----------------|-6---6-6---6-6---|-7---7-7---7-7---|-----------------|
D|-2---2-2---2-2-0-|-6---6-6---6-6-0-|-7---7-7---7-7-0-|-7-7-7-7-7-7-7-7-|
A|-2---2-2---2-2-0-|-4---4-4---4-4-0-|-5---5-5---5-5-0-|-7-7-7-7-7-7-7-7-|
D|-2---2-2---2-2-0-|-----------------|-----------------|-7-7-7-7-7-7-7-7-|


   1 + 2 + 3 + 4 +   1 + 2 + 3 + 4 +   1 + 2 + 3 + 4 +   1 + 2 + 3 + 4 +
E|-----------------|-----------------|-----------------|-----------------|
B|-----------------|-----------------|-----------------|-----------------|
G|-----------------|-6---6-6---6-6---|-7---7-7---7-7---|-----------------|
D|-2---2-2---2-2-0-|-6---6-6---6-6-0-|-7---7-7---7-7-0-|-7-7-7-7-7-7-7-7-|
A|-2---2-2---2-2-0-|-4---4-4---4-4-0-|-5---5-5---5-5-0-|-7-7-7-7-7-7-7-7-|
D|-2---2-2---2-2-0-|-----------------|-----------------|-7-7-7-7-7-7-7-7-|
 |
 |
 | 1 + 2 + 3 + 4 +   1 + 2 + 3 + 4 +   1 + 2 + 3 + 4 +   1 + 2 + 3 + 4 +
E|-----------------|-----------------|-----------------|-----------------|
B|-----------------|-----------------|-----------------|-----------------|
G|-----------------|-6---6-6---6-6---|-7---7-7---7-7---|-----------------|
D|-2---2-2---2-2-0-|-6---6-6---6-6-0-|-7---7-7---7-7-0-|-7-7-7-7-7-7-7-7-|
A|-2---2-2---2-2-0-|-4---4-4---4-4-0-|-5---5-5---5-5-0-|-7-7-7-7-7-7-7-7-|
D|-2---2-2---2-2-0-|-----------------|-----------------|-7-7-7-7-7-7-7-7-|


Chorus


   1 + 2 + 3 +   1 + 2 + 3 +   1 + 2 + 3 +   1 + 2 + 3 + 
E|-------------|-------------|-------------|-------------|
B|-------------|-------------|-------------|-------------|
G|-------------|-6---x-2-2-x-|-------------|-------------|
D|-2---x-6-6-x-|-6---x-2-2-x-|-2---x-6-6-x-|-------------|
A|-2---x-6-6-x-|-4---x-0-0-x-|-2---x-6-6-x-|-9---11--9---|
D|-2---x-6-6-x-|-------------|-2---x-6-6-x-|-------------|
 |
 |
 | 1 + 2 + 3 +   1 + 2 + 3 +   1 + 2 + 3 +   1 + 2 + 3 + 
E|-------------|-------------|-------------|-------------|
B|-------------|-------------|-------------|-------------|
G|-------------|-6---x-2-2-x-|-------------|-6---9---9-x-|
D|-2---x-6-6-x-|-6---x-2-2-x-|-2---x-6-6-x-|-6---9---9-x-|
A|-2---x-6-6-x-|-4---x-0-0-x-|-2---x-6-6-x-|-4---7---7-x-|
D|-2---x-6-6-x-|-------------|-2---x-6-6-x-|-------------|


   1 + 2 + 3 +   1 + 2 + 3 +   1 + 2 + 3 +   1 + 2 + 3 + 
E|-------------|-------------|-------------|-------------|
B|-------------|-------------|-------------|-------------|
G|-------------|-6---x-2-2-x-|-6---x-8-8-x-|-9---x1111-x-|
D|-----x-6-6-x-|-6---x-2-2-x-|-x---x-x-x-x-|-x---x-x-x-x-|
A|-7\--x-6-6-x-|-4---x-0-0-x-|-4---x-6-6-x-|-7---x-9-9-x-|
D|-----x-6-6-x-|-------------|-------------|-------------|
 |
 |
 | 1 + 2 + 3 +   1 + 2 + 3 +   1 + 2 + 3 +   1 + 2 + 3 + 
E|-------------|-------------|-------------|-------------|
B|-------------|-------------|-------------|-------------|
G|-------------|-6---x-2-2-x-|-------------|-------------|
D|-2---x-6-6-x-|-6---x-2-2-x-|-4---x-6-6-x-|-7---x-9-9-x-|
A|-2---x-6-6-x-|-4---x-0-0-x-|-4---x-6-6-x-|-7---x-9-9-x-|
D|-2---x-6-6-x-|-------------|-4---x-6-6-x-|-7---x-9-9-x-|


   1 + 2 + 3 +   1 + 2 + 3 +   1 + 2 + 3 +   1 + 2 + 3 + 
E|-------------|-------------|-------------|-------------|
B|-------------|-------------|-------------|-------------|
G|-------------|-6---x-2-2-x-|-------------|-------------|
D|-2---x-6-6-x-|-6---x-2-2-x-|-2---x-6-6-x-|-------------|
A|-2---x-6-6-x-|-4---x-0-0-x-|-2---x-6-6-x-|-9---11--9---|
D|-2---x-6-6-x-|-------------|-2---x-6-6-x-|-------------|
 |
 |
 | 1 + 2 + 3 +   1 + 2 + 3 +   1 + 2 + 3 +   1 + 2 + 3 + 
E|-------------|-------------|-------------|-------------|
B|-------------|-------------|-------------|-------------|
G|-------------|-6---x-2-2-x-|-------------|-6---9---9-x-|
D|-2---x-6-6-x-|-6---x-2-2-x-|-2---x-6-6-x-|-6---9---9-x-|
A|-2---x-6-6-x-|-4---x-0-0-x-|-2---x-6-6-x-|-4---7---7-x-|
D|-2---x-6-6-x-|-------------|-2---x-6-6-x-|-------------|


   1 + 2 + 3 +   1 + 2 + 3 +   1 + 2 + 3 +   1 + 2 + 3 + 
E|-------------|-------------|-------------|-------------|
B|-------------|-------------|-------------|-------------|
G|-------------|-6---x-2-2-x-|-6---x-8-8-x-|-9---x1111-x-|
D|-----x-6-6-x-|-6---x-2-2-x-|-x---x-x-x-x-|-x---x-x-x-x-|
A|-7\--x-6-6-x-|-4---x-0-0-x-|-4---x-6-6-x-|-7---x-9-9-x-|
D|-----x-6-6-x-|-------------|-------------|-------------|
 |
 |
 | 1 + 2 + 3 +   1 + 2 + 3 +   1 + 2 + 3 +   1 + 2 + 3 + 
E|-------------|-------------|-------------|-------------|
B|-------------|-------------|-------------|-------------|
G|-------------|-6---x-2-2-x-|-------------|-------------|
D|-2---x-6-6-x-|-6---x-2-2-x-|-4---x-6-6-x-|-7---x-9-9-x-|
A|-2---x-6-6-x-|-4---x-0-0-x-|-4---x-6-6-x-|-7---x-9-9-x-|
D|-2---x-6-6-x-|-------------|-4---x-6-6-x-|-7---x-9-9-x-|


Bridge


   1 + 2 + 3 + 4 +   1 + 2 + 3 + 4 + 
E|-----------------|-----------------|
B|-----------------|-----------------|
G|-----------------|-----------------|
D|-----------------|-----------------|
A|-2-2-2-2-2-2-2-2-|-2b2b2b2b2b2b2b2b|
D|-----------------|-----------------|
 |
 |
 | 1 + 2 + 3 + 4 +   1 + 2 + 3 + 4 + 
E|-----------------|-----------------|
B|-----------------|-----------------|
G|-----------------|-----------------|
D|-----------------|-------------x\x-|
A|-----------------|-------------x\x-|
D|-----------------|-------------x\x-|


 *This part of the solo isn't according to the beat, harmonics are pinched
E|-----------------|-----------------|-----------------|-----------------|
B|-9v--------------|-----------------|-9v------9v------|-12-9------------|
G|----11-9-9-------|-9----9-11-9-----|----11-9----11-9-|------11-9\------|
D|-----------11-9--|----11------11-9-|-----------------|-----------------|
A|-----------------|-----------------|-----------------|-----------------|
D|-----------------|-----------------|-----------------|-----------------|
 | +                                   +       +
 |
 | 1 + 2 + 3 + 4 +   1 + 2 + 3 + 4 +   1 + 2 + 3 + 4 +   1 + 2 + 3 + 4 +
E|-----------------|-----------------|-----------------|-----------------|
B|-----------------|-----------------|-----------------|-----------------|
G|-----------------|-----------------|-----------------|-----------------|
D|-2-2-2-0---0-0-0-|-7-7-7-0---0-0-0-|-2-2-2-0---0-0-0-|-7-7-7-0---0-0-0-|
A|-2-2-2-0---0-0-0-|-7-7-7-0---0-0-0-|-2-2-2-0---0-0-0-|-7-7-7-0---0-0-0-|
D|-2-2-2-0---0-0-0-|-7-7-7-0---0-0-0-|-2-2-2-0---0-0-0-|-7-7-7-0---0-0-0-|


   1 + 2 + 3 + 4 +   1 + 2 + 3 + 4 +   1 + 2 + 3 + 4 +   1 + 2 + 3 + 4 +
E|-----------------|-----------------|-----------------|-----------------|
B|-----------------|-----------------|-----------------|-----------------|
G|-9-9-9-9-9-9-9-9-|-9-9-9-9-6-6-6-6-|-1313131313131313|-1313131313131313|
D|-x-x-x-x-x-x-x-x-|-x-x-x-x-x-x-x-x-|--x-x-x-x-x-x-x-x|--x-x-x-x-x-x-x-x|
A|-7-7-7-7-7-7-7-7-|-7-7-7-7-4-4-4-4-|-1111111111111111|-1111111111111111|
D|-----------------|-----------------|-----------------|-----------------|
 |
 |
 | 1 + 2 + 3 + 4 +   1 + 2 + 3 + 4 +   1 + 2 + 3 + 4 +   1 + 2 + 3 + 4 +
E|-----------------|-----------------|-----------------|-----------------|
B|-----------------|-----------------|-----------------|-----------------|
G|-----------------|-----------------|-----------------|-----------------|
D|-2-2-2-0---0-0-0-|-7-7-7-0---0-0-0-|-2-2-2-0---0-0-0-|-7-7-7-0---0-0-0-|
A|-2-2-2-0---0-0-0-|-7-7-7-0---0-0-0-|-2-2-2-0---0-0-0-|-7-7-7-0---0-0-0-|
D|-2-2-2-0---0-0-0-|-7-7-7-0---0-0-0-|-2-2-2-0---0-0-0-|-7-7-7-0---0-0-0-|


   1 + 2 + 3 + 4 +   1 + 2 + 3 + 4 +   1 + 2 + 3 + 4 +  
E|-----------------|-----------------|-----------------|
B|-----------------|-----------------|-----------------|
G|-9-9-9-9-9-9-9-9-|-9-9-9-9-6-6-6-6-|-1313131313131313|
D|-x-x-x-x-x-x-x-x-|-x-x-x-x-x-x-x-x-|--x-x-x-x-x-x-x-x|
A|-7-7-7-7-7-7-7-7-|-7-7-7-7-4-4-4-4-|-1111111111111111|
D|-----------------|-----------------|-----------------|
 |
 |
 | 1 + 2 + 3 + 4 +   1 + 2 + 3 + 4 +   1 + 2 + 3 + 4 +
E|-----------------|-----------------|-----------------|
B|-----------------|-----------------|-----------------|
G|-----------------|-----------------|-----------------|
D|-2-2-2-0---0-0-0-|-7-7-7-0---0-0-0-|-2-2-2-0---0-0-0-|
A|-2-2-2-0---0-0-0-|-7-7-7-0---0-0-0-|-2-2-2-0---0-0-0-|
D|-2-2-2-0---0-0-0-|-7-7-7-0---0-0-0-|-2-2-2-0---0-0-0-|


   1 + 2 + 3 + 4 +   1 + 2 + 3 + 4 +   1 + 2 + 3 + 4 +   1 + 2 + 3 + 4 +
E|-----------------|-----------------|-----------------|-----------------|
B|-----------------|-----------------|-----------------|-----------------|
G|-1616161616161616|-1616161616161616|-9~--------------|-----------------|
D|--x-x-x-x-x-x-x-x|--x-x-x-x-x-x-x-x|-x~--------------|-----------------|
A|-1414141414141414|-1414141414141414|-7~--------------|-----------0-0---|
D|-----------------|-----------------|-----------------|-----------0-0---|
 |                                                                 . .
 |
 | 1 + 2 + 3 + 4 +   1 + 2 + 3 + 4 +   1 + 2 + 3 + 4 +   1 + 2 + 3 + 4 +
E|-----------------|-----------------|-----------------|-----------------|
B|-----------------|-----------------|-----------------|-----------------|
G|-----------------|-----------------|-----------------|-----------------|
D|-9-9-9-9-9-9-9-9-|-9-9-9-9-9-9-9-9-|-2~--------------|-----------------|
A|-9-9-9-9-9-9-9-9-|-9-9-9-9-9-9-9-9-|-2~--------------|-----------0-0---|
D|-9-9-9-9-9-9-9-9-|-9-9-9-9-9-9-9-9-|-2~--------------|-----------0-0---|
                                                                   . .

Chorus


   1 + 2 + 3 +   1 + 2 + 3 +   1 + 2 + 3 +   1 + 2 + 3 + 
E|-------------|-------------|-------------|-------------|
B|-------------|-------------|-------------|-------------|
G|-------------|-6---x-2-2-x-|-------------|-------------|
D|-2---x-6-6-x-|-6---x-2-2-x-|-2---x-6-6-x-|-------------|
A|-2---x-6-6-x-|-4---x-0-0-x-|-2---x-6-6-x-|-9---11--9---|
D|-2---x-6-6-x-|-------------|-2---x-6-6-x-|-------------|
 |
 |
 | 1 + 2 + 3 +   1 + 2 + 3 +   1 + 2 + 3 +   1 + 2 + 3 + 
E|-------------|-------------|-------------|-------------|
B|-------------|-------------|-------------|-------------|
G|-------------|-6---x-2-2-x-|-------------|-6---9---9-x-|
D|-2---x-6-6-x-|-6---x-2-2-x-|-2---x-6-6-x-|-6---9---9-x-|
A|-2---x-6-6-x-|-4---x-0-0-x-|-2---x-6-6-x-|-4---7---7-x-|
D|-2---x-6-6-x-|-------------|-2---x-6-6-x-|-------------|


   1 + 2 + 3 +   1 + 2 + 3 +   1 + 2 + 3 +   1 + 2 + 3 + 
E|-------------|-------------|-------------|-------------|
B|-------------|-------------|-------------|-------------|
G|-------------|-6---x-2-2-x-|-6---x-8-8-x-|-9---x1111-x-|
D|-----x-6-6-x-|-6---x-2-2-x-|-x---x-x-x-x-|-x---x-x-x-x-|
A|-7\--x-6-6-x-|-4---x-0-0-x-|-4---x-6-6-x-|-7---x-9-9-x-|
D|-----x-6-6-x-|-------------|-------------|-------------|
 |
 |
 | 1 + 2 + 3 +   1 + 2 + 3 +   1 + 2 + 3 +   1 + 2 + 3 + 
E|-------------|-------------|-------------|-------------|
B|-------------|-------------|-------------|-------------|
G|-------------|-6---x-2-2-x-|-------------|-------------|
D|-2---x-6-6-x-|-6---x-2-2-x-|-4---x-6-6-x-|-7---x-9-9-x-|
A|-2---x-6-6-x-|-4---x-0-0-x-|-4---x-6-6-x-|-7---x-9-9-x-|
D|-2---x-6-6-x-|-------------|-4---x-6-6-x-|-7---x-9-9-x-|


   1 + 2 + 3 +   1 + 2 + 3 +   1 + 2 + 3 +   1 + 2 + 3 + 
E|-------------|-------------|-------------|-------------|
B|-------------|-------------|-------------|-------------|
G|-------------|-6---x-2-2-x-|-------------|-------------|
D|-2---x-6-6-x-|-6---x-2-2-x-|-2---x-6-6-x-|-------------|
A|-2---x-6-6-x-|-4---x-0-0-x-|-2---x-6-6-x-|-9---11--9---|
D|-2---x-6-6-x-|-------------|-2---x-6-6-x-|-------------|
 |
 |
 | 1 + 2 + 3 +   1 + 2 + 3 +   1 + 2 + 3 +   1 + 2 + 3 + 
E|-------------|-------------|-------------|-------------|
B|-------------|-------------|-------------|-------------|
G|-------------|-6---x-2-2-x-|-------------|-6---9---9-x-|
D|-2---x-6-6-x-|-6---x-2-2-x-|-2---x-6-6-x-|-6---9---9-x-|
A|-2---x-6-6-x-|-4---x-0-0-x-|-2---x-6-6-x-|-4---7---7-x-|
D|-2---x-6-6-x-|-------------|-2---x-6-6-x-|-------------|


   1 + 2 + 3 +   1 + 2 + 3 +   1 + 2 + 3 +   1 + 2 + 3 + 
E|-------------|-------------|-------------|-------------|
B|-------------|-------------|-------------|-------------|
G|-------------|-6---x-2-2-x-|-6---x-8-8-x-|-9---x1111-x-|
D|-----x-6-6-x-|-6---x-2-2-x-|-x---x-x-x-x-|-x---x-x-x-x-|
A|-7\--x-6-6-x-|-4---x-0-0-x-|-4---x-6-6-x-|-7---x-9-9-x-|
D|-----x-6-6-x-|-------------|-------------|-------------|
 |
 |
 | 1 + 2 + 3 +   1 + 2 + 3 +   1 + 2 + 3 +   1 + 2 + 3 + 
E|-------------|-------------|-------------|-------------|
B|-------------|-------------|-------------|-------------|
G|-------------|-6---x-2-2-x-|-------------|-------------|
D|-2---x-6-6-x-|-6---x-2-2-x-|-4---x-6-6-x-|-7---x-9-9-x-|
A|-2---x-6-6-x-|-4---x-0-0-x-|-4---x-6-6-x-|-7---x-9-9-x-|
D|-2---x-6-6-x-|-------------|-4---x-6-6-x-|-7---x-9-9-x-|


Outro


   1 + 2 + 3 +   1 + 2 + 3 +   1 + 2 + 3 +   1 + 2 + 3 + 
E|-------------|-------------|-------------|-------------|
B|-------------|-------------|-------------|-------------|
G|-13/14-13/14-|-11--9---9---|-13/14-13/14-|-11--13--9---|
D|--x/-x--x/-x-|--x--x---x---|--x/-x--x/-x-|--x---x--x---|
A|-11/12-11/12-|--9--7---7---|-11/12-11/12-|--9--11--7---|
D|-------------|-------------|-------------|-------------|
 |
 |
 | 1 + 2 + 3 +   1 + 2 + 3 +   1 + 2 + 3 +   1 + 2 + 3 + 
E|-------------|-------------|-------------|-------------|
B|-------------|-------------|-------------|-------------|
G|-------------|-6---x-2-2-x-|-------------|-6---9---9-x-|
D|-2---x-6-6-x-|-6---x-2-2-x-|-2---x-6-6-x-|-6---9---9-x-|
A|-2---x-6-6-x-|-4---x-0-0-x-|-2---x-6-6-x-|-4---7---7-x-|
D|-2---x-6-6-x-|-------------|-2---x-6-6-x-|-------------|


   1 + 2 + 3 +   1 + 2 + 3 +   1 + 2 + 3 +   1 + 2 + 3 + 
E|-------------|-------------|-------------|-------------|
B|-------------|-------------|-------------|-------------|
G|-13/14-13/14-|-11--9---9---|1111-1313-99-|141414-131313|
D|--x/-x--x/-x-|--x--x---x---|-x-x--x-x-xx-|-x-x-x--x-x-x|
A|-11/12-11/12-|--9--7---7---|-9-9-1111-77-|121212-111111|
D|-------------|-------------|-------------|-------------|
 |
 |
 | 1 + 2 + 3 +   1 + 2 + 3 +   1 + 2 + 3 +   1 + 2 + 3 + 
E|-------------|-------------|-------------|-------------|
B|-------------|-------------|-------------|-------------|
G|-------------|-6---x-2-2-x-|-------------|-------------|
D|-2---x-6-6-x-|-6---x-2-2-x-|-4---x-6-6-x-|-7---x-9-9-x-|
A|-2---x-6-6-x-|-4---x-0-0-x-|-4---x-6-6-x-|-7---x-9-9-x-|
D|-2---x-6-6-x-|-------------|-4---x-6-6-x-|-7---x-9-9-x-|


   1 + 2 + 3 +   1 + 2 + 3 +   1 + 2 + 3 +   1 + 2 + 3 + 
E|-------------|-------------|-------------|-------------|
B|-------------|-------------|-------------|-------------|
G|-------------|-------------|-------------|-------------|
D|-------------|-------------|-------------|-------------|
A|-------------|-------------|-------------|-------------|
D|-------------|-------------|-------------|-------------|
 |
 |
 | 1 + 2 + 3 +   1 + 2 + 3 +   1 + 2 + 3 +   1 + 2 + 3 +   End On
E|-------------|-------------|-------------|-------------|--------|
B|-------------|-------------|-------------|-------------|--------|
G|-----1---1---|-----1---1---|-----1---1---|-----1---1---|--------|
D|---2---2---2-|---2---2---2-|---2---2---2-|---2---2---2-|--------|
A|-2-----------|-0-----------|-2-----------|-0-----------|-2~-----|
D|-------------|-------------|-------------|-------------|-2~-----|


there you go, enjoy!
            
Submit corrections


        Your Biggest Mistake lessons Hard to play? Try these video lessons and learn fast Your Biggest Mistake lessons
        
↑ Back to top | Tablatures and chords for acoustic guitar and electric guitar, ukulele, drums are parodies/interpretations of the original songs. You may use it for private study, scholarship, research or language learning purposes only