» » »

New Found Glory - Glory Of Love Tabs

Artists:  A B C D E F G H I J K L M N O P Q R S T U V W X Y Z # 

Glory Of Love Tabs

(ver. 3) Click to play this song!
New Found Glory
 Rating:
4/5 (4 votes)

 Glory Of Love lessons Tabs too difficult? Try these video lessons and learn fast
 
                "(2)
1ST VERSE:
e---------------------
B---------------------
G-5-------55----55-4--
D-5---5---55-33-55-4--
A-3---5---33-33-33-2--
E-----3------11-------

2ND VERSE: The notes are actually played 4 times each but i like it this way
e-------------------------------------------------------------------------
B-------------------------------------------------------------------------
G-55555555----------------------------------------------------------------
D-55555555-77777777-88888888-55555555-66666666/88888888\66666666/88888888-
A-33333333-77777777-88888888-55555555-66666666/88888888\66666666/88888888-
E----------55555555-66666666-33333333-44444444/66666666\44444444/66666666-

1ST VERSE

2ND VERSE

CHORUS
e-------------------------------------------------------------------------
B-------------------------------------------------------------------------
G-55555555----------------------------55555555----------77777777----------
D-55555555-33333333-22222222-55555555-55555555-77777777-77777777-55555555-
A-33333333-33333333-22222222-55555555-33333333-77777777-55555555-55555555-
E----------11111111-00000000-33333333----------55555555----------33333333-

e-----------------------------------------------------------------------
B-----------------------------------------------------------------------
G----55----------------------77777777----------555555555555555----------
D-77-55-33-66666666-77777777-77777777-55555555-555555555555555-33333333-
A-77-33-33-66666666-77777777-55555555-55555555-333333333333333-33333333-
E-55----11-44444444-55555555----------33333333-----------------11111111-

e----------
B----------
G----------
D-55555555-
A-55555555-
E-33333333-

1ST VERSE 

2ND VERSE

CHORUS

BRIDGE
e-------------------------------------------------------------------------
B-------------------------------------------------------------------------
G-----------7-8-7-8\7-----7-8-10-8--------------------------------------5-
D-3333-6666-7-6-7-8\7-3-6-7-8-10-8-5-5555555555555555-5-555555555555555-5-
A-3333-6666-5-6-5-6\5-3-6-5-6--8-6-5-5555555555555555-5-555555555555555-3-
E-1111-4444-----------1-4----------3-3333333333333333-3-333333333333333---
				     pm..............   pm.............
CLAPPING TIME!!! YAY!!

then..
e----------
B----------
G-55555555-
D-55555555-
A-33333333-
E----------

CHORUS


THAT'S IT. JUST LISTEN TO THE SONG AND YOU'LL PICK IT UP!
"            
Submit corrections


        Glory Of Love lessons Hard to play? Try these video lessons and learn fast Glory Of Love lessons
        
↑ Back to top | Tablatures and chords for acoustic guitar and electric guitar, ukulele, drums are parodies/interpretations of the original songs. You may use it for private study, scholarship, research or language learning purposes only