Home » N » New Found Glory »

New Found Glory - Ready And Willing Chords

Artists:  A B C D E F G H I J K L M N O P Q R S T U V W X Y Z # 

Ready And Willing Chords

(ver. 1) Click to play this song!
New Found Glory
Intro Riff:
e|------------0h2---------------------0h2------------------|
B|-3-3-3-0h3------3-0-3----3-3-3-0h3------3--7h8p7---------|
G|---------------------------------------------------------|
D|---------------------------------------------------------|   4x
A|---------------------------------------------------------|
E|---------------------------------------------------------|

e|-----------------------------------------------------------------|
B|-----------------------------------------------------------------|
G|------------------------------------------------------7----------|
D|------------------------------------------------------7----------|
A|-2--0-----------2--0--4--2h4h5---2--0-----------2--0--5----------|
E|-------2--2h4p2------------------------2--2h4p2------------------|


Verse:
D             Db5
I defied the odds
             D6               Dsus4                        D
Dead end cul-de-sac gridded streets that felt like jail
               Db5               D6
A maze of palm trees, led to nowhere
             Dsus4                  D
Built my own boat so I could sail
               Db5                 D6
They said, you won?t make it
            Dsus4                   D
You?re just wasting all your time
                  Db5
But I?ve got no patience
             D6            Dsus4
And hate to stand in lines


Chorus:
D   G       Bm             A
   Ohh I?m ready and I?m willing to take you on
D   G       Bm             A
   Ohh I?m ready and I?m willing to lose it all


Intro Riff:
e|-----------------------------------------------------------|
B|-3-3-3-0h3-3-4h5p4-0h3---3-3-3-0h3-3-4h5p4-7p3-------------|
G|-----------------------------------------------------------|
D|-----------------------------------------------------------|   2x
A|-----------------------------------------------------------|
E|-----------------------------------------------------------|

e|-----------------------------------------------------------------|
B|-----------------------------------------------------------------|
G|------------------------------------------------------7----------|
D|------------------------------------------------------7----------|
A|-2--0-----------2--0--4--2h4h5---2--0-----------2--0--5----------|
E|-------2--2h4p2------------------------2--2h4p2------------------|


Verse 2:
D              Db5               D6
I search the channels to find stations
          Dsus4                    D
I used to watch when I was young
         Db5                   D6
Only to find a reality that?s fine
              Dsus4
Settling for dumb
D                 Db5
There?s no more heroes
        D6              Dsus4
No one showing us the way
     D                    Db5
So I sift through my old 45?s
   D6            Dsus4
To remind myself.


Chorus:
D   G       Bm             A
   Ohh I?m ready and I?m willing to take you on
D   G       Bm             A
   Ohh I?m ready and I?m willing to lose it all
D   G       Bm             A
   Ohh I?m ready and I?m willing to take you on
D   G       Bm             A
   Ohh I?m ready and I?m willing to lose it all


Bridge:
D             2x

D
When my back goes out, I?ll know I did it all

And have stories to tell.
D
When my eyes go bad, I?ll know I?ve seen it all

They?ll be light when my vision fails
D
My legs will go bad

But I walked 5 continents

So I won?t need to stand
D
I hope this life I lived will wake you up
                       A
So you could do it again


Chorus:
D   G           Bm             A
   Ohh Are you ready are you willing to take it on?
D   G           Bm             A
   Ohh Are you ready are you willing to lose it all?
D   G           Bm             A
   Ohh Are you ready are you willing to take it on?
D   G           Bm             A
   Ohh Are you ready are you willing to lose it all?


Intro Riff:
e|-----------------------------------------------------------|
B|-3-3-3-0h3-3-4h5p4-0h3---3-3-3-0h3-3-4h5p4-7p3-------------|
G|-----------------------------------------------------------|
D|-----------------------------------------------------------|   2x
A|-----------------------------------------------------------|
E|-----------------------------------------------------------|

e|-----------------------------------------------------------------|
B|-----------------------------------------------------------------|
G|------------------------------------------------------7----------|
D|------------------------------------------------------7----------|
A|-2--0-----------2--0--4--2h4h5---2--0-----------2--0--5----------|
E|-------2--2h4p2------------------------2--2h4p2------------------|
            
Submit corrections

↑ Back to top | Tablatures and chords for acoustic guitar and electric guitar, ukulele, drums are parodies/interpretations of the original songs. You may use it for private study, scholarship, research or language learning purposes only