Home » N » New Found Glory »

New Found Glory - Hit Or Miss Bass

Artists:  A B C D E F G H I J K L M N O P Q R S T U V W X Y Z # 

Hit Or Miss Bass

(ver. 1) Click to play this song!
New Found Glory
 Rating:
4/5 (4 votes)
                "Hit or Miss"
New Found Glory

Correction notes: The intro/chrous/solo riff was slightly off.

Intro
G---------------------------
D---------------------------
A------55-5-----------------
E--0--------55-5-77-7-33-3--

Verse (the needle on my record player...)
G-------------------------------------------
D-------------------------------------------
A-----------222222222-4444444444-222222222--
E-000000000---------------------------------

Pre-chorus (no more long rides home...)
G-------------------------------------------
D-------------------------------------------
A-----------222222222-4444444444-222222222--
E-000000000---------------------------------

G----------------------------------------
D----------------------------------------
A--------22222222-444444444-/7777777777--
E-0-0000---------------------------------

Pre-chorus part 2 (remember the time...)
G---------------------------------------------
D---------------------------------------------
A------222222-444444444------222222-00000000--
E-0000------------------0000------------------

G----------------------------
D----------------------------
A------22222-44444444---2-0--
E-0000----------------0------

Chorus (have i waited too long...)
G---------------------------------------------------------------
D---------------------------------------------------------------
A-55-5-----------------55-5-----------------55-5----------------
E------55-5-77-7-33-3-------55-5-77-7-33-3------55-5-77-7-33-3--



Bridge (look how many times i've tried...)
G---------------------------------------*---------
D---------------------------------------*---------
A----------22-22222-44-44444-x-2x2x2x2--*-0-2-/7-- hit these three
E-00-00000------------------------------*--------- notes the last time

Solo
G----------------------
D----------------------
A-55-5-----------------
E------55-5-77-7-33-3--

Outro: play the chorus
            
Submit corrections

↑ Back to top | Tablatures and chords for acoustic guitar and electric guitar, ukulele, drums are parodies/interpretations of the original songs. You may use it for private study, scholarship, research or language learning purposes only