Home » N » New Found Glory »

New Found Glory - Familiar Landscapes Tabs

Artists:  A B C D E F G H I J K L M N O P Q R S T U V W X Y Z # 

Familiar Landscapes Tabs

(ver. 1) Click to play this song!
New Found Glory
 Rating:
4/5 (4 votes)
                piano intro
e|---------------------------|
B|------13--12--10-----------|
G|---12-------------12-------| this is repeated throughout the song
D|---------------------------| the last time you play it you do not play 
A|---------------------------| the last 12 on the g string 
E|---------------------------|

Intro
e|-----------------------|
B|-----------------------|
G|--5~------7~-----------|
D|--5~--3~--7~--3~--5~---|                               
A|--3~--3~--5~--3~--5~---|
E|------1~------1~--3~---|

this next part I am not 100% sure on but this is how I play it and it sounds alright.
e|-----------------------------------|
B|-----------------------------------|
G|----5----5----7----7----2----2-----|
D|----5----5----7----7----2----2-----|                               
A|--3----3----5----5----0----0-------|
E|-----------------------------------|
then to transition to the chorus this is played
e|--------------------|
B|--------------------|
G|--------------------|
D|--7/----3~---5~-----|                               
A|--7/----3~---5~-----|
E|--5/----1~---3~-----|
the chorus is the same as the intro 
after chorus repeat the verse and chorus again
BRIDGE LEAD
e|---------------------------|
B|---------------------------|
G|---9----12-----9----12-----|
D|-----10----10----10----10--|                               
A|---------------------------|
E|---------------------------|
lead cont.
e|---------------------------|
B|---------8------------8----|
G|---7--5-----5---7--5----5--|
D|---------------------------|                               
A|---------------------------|
E|---------------------------|
you play the whole thing twice than every second ending is play with this at the end
e|------------------------------|
B|------------------------------|
G|----5--4--7--5--4-------------|
D|-------------------5/7/5------|                               
A|------------------------------|
E|------------------------------|
all of that is repeated twice
BRIDGE RHYTHM
e|---------------------------|
B|---------------------------|
G|---------------------------|
D|----7~--5~--2~--3~---------|                               
A|----7~--5~--2~--3~---------|
E|----5~--3~--0~--1~---------|
both guitars then play this
e|----------------------------|
B|----------------------------|
G|----------------------------|
D|---7777--5555--2222--3333---|                               
A|---7777--5555--2222--3333---|
E|---5555--3333--0000--1111---|
this next part is played when he sings "but my heart can't take it"
it is slightly muted but it builds up 
e|---------------------------|
B|---------------------------|
G|---------------------------|
D|--22222222--33333333-------|                               
A|--22222222--33333333-------|
E|--00000000--11111111-------|
    ........  ........
chorus a little bit different the chords are the same though
e|------------------|
B|------------------|
G|--------5~--------|
D|--------5~--------| hold this until he says                               
A|--------3~--------| "what do you want from my life"
E|------------------|
Chorus cont.
e|--------------------------------------|
B|--------------------------------------|
G|---5~-------77777777------------------|
D|---5~--3~---77777777---3333-5555------|                               
A|---3~--3~---55555555---3333-5555------|
E|-------1~--------------1111-3333------|
              ........   .... ....
after that the chorus goes back to how it was before and that is the rest of the song.
            
Submit corrections

↑ Back to top | Tablatures and chords for acoustic guitar and electric guitar, ukulele, drums are parodies/interpretations of the original songs. You may use it for private study, scholarship, research or language learning purposes only