» » »

New Found Glory - Ending In Tragedy Tabs

Artists:  A B C D E F G H I J K L M N O P Q R S T U V W X Y Z # 

Ending In Tragedy Tabs

(ver. 2) Click to play this song!
New Found Glory
 Rating:
4/5 (4 votes)

 Ending In Tragedy lessons Tabs too difficult? Try these video lessons and learn fast
 
                Bassist: Ian Grushka


Intro/Outro

G|-------------------------------------------------------|
D|-------------------------------------------------------|
A|-------------------------------------------------------| x4
E|--4----2----0----0-2-0-2---4----2----0----0-2-0-2------|


Verse

G|-------------------------------------------------------|
D|-------------------------------------------------------|
A|--11--------9----------7----------9--------------------| x4
E|-------------------------------------------------------|


Mid-Verse

G|-------------------------------------------------------|
D|-------------------------------------------------------|
A|-------------------------------------------------------| x2
E|--4--4-2--2-0----0-2-0-2---4--4-2--2-0----0-2-0-2------|


Chorus

G|-------------------------------------------------------|
D|-------------------------------------------------------|
A|--2-2-2-2-2-2-------------------------2-2-2------------| x2
E|--------------2-2-2-2-2-2-0-0-0-0-0-0-------2-2-2------|


Mid-Verse x 1

Verse x 4

Mid-Verse x 3

Chorus x 2


Breakdown

G|-------------------------------------------------------|
D|--------------------------22222222222222222222222------|
A|--------------4-4-4-4----------------------------------|
E|--4-4-4-4----------------------------------------------|

G|-------------------------------------------------------|
D|--------------------------22222222222222222222222------|
A|--------------4-4-4-4----------------------------------|
E|--4-4-4-4----------------------------------------------|

G|-------------------------------------------------------|
D|--------------------------22222222222222222222222------|
A|--------------4-4-4-4-4-4------------------------------|
E|--4-4-4-4-4-4------------------------------------------|

G|-------------------------------------------------------|
D|--------------------------22222222222/55555555555------|
A|--------------4-4-4-4-4-4------------------------------|
E|--4-4-4-4-4-4------------------------------------------|


Chorus

G|-------------------------------------------------------|
D|-------------------------------------------------------|
A|--2-2-2-2-2-2-------------------------2-2-2------------| x2
E|--------------2-2-2-2-2-2-0-0-0-0-0-0-------2-2-2------|

G|-------------------------------------------------------|
D|-------------------------------------------------------|
A|--2-2-2-2-2-2------------------------------------------|
E|--------------2-2-2-2-2-2-0-0-0-0-0-0-0-0-0-0-0-0------|

G|-------------------------------------------------------|
D|-------------------------------------------------------|
A|--2-2-2-2-2-2-------------------------2-2-2------------|
E|--------------2-2-2-2-2-2-0-0-0-0-0-0-------2-2-2------|


Outro

G|-------------------------------------------------------|
D|-------------------------------------------------------|
A|-------------------------------------------------------|
E|--4----2----0----0-2-0-2---4----2----0----0-2-0-2------|


End On:

E|4|
            
Submit corrections


        Ending In Tragedy lessons Hard to play? Try these video lessons and learn fast Ending In Tragedy lessons
        
↑ Back to top | Tablatures and chords for acoustic guitar and electric guitar, ukulele, drums are parodies/interpretations of the original songs. You may use it for private study, scholarship, research or language learning purposes only