» » »

New Found Glory - Dressed To Kill Tabs

Artists:  A B C D E F G H I J K L M N O P Q R S T U V W X Y Z # 

Dressed To Kill Tabs

(ver. 1) Click to play this song!
New Found Glory
 Rating:
4/5 (4 votes)

 Dressed To Kill lessons Tabs too difficult? Try these video lessons and learn fast
 
                "Dressed To Kill" - A New Found Glory

Intro
e|---------------------------------------------------------------------------|
B|---------------------------------------------------------------------------|
G|--7--9---------------------------------------------------------------------|
D|--7--9---------------------------------------------------------------------|
A|--5--7---------------------------------------------------------------------|
E|---------------------------------------------------------------------------|

Guitar 1
e|---------------------------------------------------------------------------|
B|---------------------------------------------------------------------------|
G|------------7--9-----------------------------------------------------------|
D|--7---6--4--7--9-----------------------------------------------------------|
A|--7---6--4--5--7-----------------------------------------------------------|
E|--5---4--2-----------------------------------------------------------------|

Lead Guitar (Chad)
e|------12--10--9------------------------------------------------------------|
B|--10-----------------------------------------------------------------------|
G|---------------------------------------------------------------------------|
D|---------------------------------------------------------------------------|
A|---------------------------------------------------------------------------|
E|---------------------------------------------------------------------------|

Verse (Palm Mute)
e|---------------------------------------------------------------------------|
B|---------------------------------------------------------------------------|
G|---------------------------------------------------------------------------|
D|---7--6--4--2--------------------------------------------------------------|
A|---7--6--4--2--------------------------------------------------------------|
E|---5--4--2--0--------------------------------------------------------------|

Owe it to the world, but you owe it to yourself....
e|---------------------------------------------------------------------------|
B|---------------------------------------------------------------------------|
G|---------------------------------------------------------------------------|
D|--7--9--4--2---------------------------------------------------------------|
A|--7--9--4--2---------------------------------------------------------------|
E|--5--7--2--0---------------------------------------------------------------|

 Prechorus  You're not here.....
e|---------------------------------------------------------------------------|
B|---------------------------------------------------------------------------|
G|------------7--6-----------------------------------------------------------|
D|--7-hold----7--6-----------------------------------------------------------|
A|--7---------5--4-----------------------------------------------------------|
E|--5------------------------------------------------------------------------|

Chorus
e|---------------------------------------------------------------------------|
B|---------------------------------------------------------------------------|
G|------------7--9-----------------------------------------------------------|
D|--7---6--4--7--9-----------------------------------------------------------|
A|--7---6--4--5--7-----------------------------------------------------------|
E|--5---4--2-----------------------------------------------------------------|

End Breakdown
e|---------------------------------------------------------------------------|
B|---------------------------------------------------------------------------|
G|--7--4---------------------------------------------------------------------|
D|--7--4--4--6--7---222--7--222----------------------------------------------|
A|--5--2--4--6--7---222--7--222----------------------------------------------|
E|--------2--4--5---000--5--000----------------------------------------------|
            
Submit corrections


        Dressed To Kill lessons Hard to play? Try these video lessons and learn fast Dressed To Kill lessons
        
↑ Back to top | Tablatures and chords for acoustic guitar and electric guitar, ukulele, drums are parodies/interpretations of the original songs. You may use it for private study, scholarship, research or language learning purposes only