» » »

New Found Glory - Doubt Tabs

Artists:  A B C D E F G H I J K L M N O P Q R S T U V W X Y Z # 

Doubt Tabs

(ver. 2) Click to play this song!
New Found Glory
 Rating:
4/5 (4 votes)

 Doubt lessons Tabs too difficult? Try these video lessons and learn fast
 
                "(Full)

Tuning:Standard I tabbed this song for one guitar..(their are 2 guitars in this song)

PLEASE RATE OR COMMENT


Intro 2X
e|----------------------------------------------------------------------|
B|----------------------------------------------------------------------|
G|----------------------------------------------------------------------|
D|----------------------------------------------------------------------|
A|-4h7—-4h7-------------4h7-4h7p4---------------------------------------|
E|-----------4h7—-4h7---------------4h7—4h7-----------------------------|

e|-------------------------------------------------------------|
B|-------------------------------------------------------------|
G|-------------------------------------------------------------|
D|--------------------------------------66-6-------------------|
A|-4h7—-4h7-------------4h7-4h7p4-------66-6-------------------|
E|-----------4h7—-4h7---------------4h7—44—4-------------------|
                                        xx

Intro continued
e|-------------------------------------------------------------------|
B|-------------------------------------------------------------------|
G|-6-6-666-----------6-6-666-------4---------------------------------|
D|-6-6-666--6-6-666--6-6-666--6-6--4---------------------------------|
A|-4-4-444--6-6-666--4-4-444--6-6--2---------------------------------|
E|----------4-4-444-----------4-4------------------------------------|
   x x xxx  x x xxx  x x xxx  x x
e|-------------------------------------------------------------------|
B|-------------------------------------------------------------------|
G|-6-6-666-----------6-6-666-----------------------------------------|
D|-6-6-666--6-6-666--6-6-666--6-6------------------------------------|
A|-4-4-444--6-6-666--4-4-444--6-6------------------------------------|
E|----------4-4-444-----------4-4--4h7-4h7---------------------------|
   x x xxx  x x xxx  x x xxx  x x

Verse 1X
e|-------------------------------------------------------------------|
B|-------------------------------------------------------------------|
G|-6-6-666-----------6-6-666-------4---------------------------------|
D|-6-6-666--6-6-666--6-6-666--6-6--4---------------------------------|
A|-4-4-444--6-6-666--4-4-444--6-6--2---------------------------------|
E|----------4-4-444-----------4-4------------------------------------|
   x x xxx  x x xxx  x x xxx  x x
e|-------------------------------------------------------------------|
B|-------------------------------------------------------------------|
G|-6-6-666-----------6-6-666-----------------------------------------|
D|-6-6-666--6-6-666--6-6-666--6-6------------------------------------|
A|-4-4-444--6-6-666--4-4-444--6-6------------------------------------|
E|----------4-4-444-----------4-4--4h7-4h7---------------------------|
   x x xxx  x x xxx  x x xxx  x x
e|-------------------------------------------------------------------|
B|-------------------------------------------------------------------|
G|-6-6-666-----------6-6-666-------4---------------------------------|
D|-6-6-666--6-6-666--6-6-666--6-6--4---------------------------------|
A|-4-4-444--6-6-666--4-4-444--6-6--2---------------------------------|
E|----------4-4-444-----------4-4------------------------------------|
   x x xxx  x x xxx  x x xxx  x x
e|-------------------------------------------------------------------|
B|-------------------------------------------------------------------|
G|-6-6-666-----------6-6-666-----------------------------------------|
D|-6-6-666--6-6-666--6-6-666--6-6--6-6-6-----------------------------|
A|-4-4-444--6-6-666--4-4-444--6-6--6-6-6-----------------------------|
E|----------4-4-444-----------4-4--4-4-4-----------------------------|
   x x xxx  x x xxx  x x xxx  x x
Intro 1X

Verse 1X


Chorus 2X (strumming pattern not shown)
e|---------------------------/--------------------------------------|
B|---------------------------/--------------------------------------|
G|-----------------444-------/--------------------------------------|
D|--66666666--222--444-3X----/-6666666-7777777-7-7-7-7--------------|
A|--66666666--222--222-------/-6666666-7777777-7-7-7-7--------------|
E|--44444444--000------------/-4444444-5555555-5-5-5-5--------------|
                                                 x

Intro 1X

Verse 1X

Chorus 2X


Bridge
e|----------------------------------------------------------|
B|----------------------------------------------------------|
G|-6h9—-6h9-------------6h9-6h9p6---------------------------|
D|-----------6h9—-6h9-------------6h9—6h9-------------------|
A|-------—--------------------------------------------------|
E|----------------------------------—-----------------------|

e|------------------------------------------------------------|
B|------------------------------------------------------------|
G|-4h7—-4h7-------------4h7-4h7p4-----------------------------|
D|-----------4h7—-4h7--------------4h7------------------------|
A|-------------------------------------7\4--------------------|
E|-----------—------------------------------------------------|


e|---------------------------------/--------------------/--------------------|
B|---------------------------------/--------------------/--------------------|
G|-666-xx--------------------------/-666----------------/-666----------------|
D|-666-xx-777-xx-666-xx-444-xxx----/-666-777-666-444----/-666-777-9999999999-|
A|-444-xx-777-xx-666-xx-444-xxx-2X-/-444-777-666-444-3X-/-444-777-9999999999-|
E|--------555-xx-444-xx-222-xxx----/-----555-444-222----/-----555-7777777777-|
                                                                 xxxxxxxxxx

Chorus 2X

(end with) Intro 1X


| /  slide up
| \  slide down
| h  hammer-on
| p  pull-off
| ~  vibrato
| +  harmonic
| x  Mute note
"            
Submit corrections


        Doubt lessons Hard to play? Try these video lessons and learn fast Doubt lessons
        
↑ Back to top | Tablatures and chords for acoustic guitar and electric guitar, ukulele, drums are parodies/interpretations of the original songs. You may use it for private study, scholarship, research or language learning purposes only