Home » N » New Found Glory »

New Found Glory - Dig My Own Grave Tabs

Artists:  A B C D E F G H I J K L M N O P Q R S T U V W X Y Z # 

Dig My Own Grave Tabs

(ver. 2) Click to play this song!
New Found Glory
 Rating:
4/5 (4 votes)
                (Intro)
This is the second song of NFG's new EP album Tip of the Iceberg. I reckon that
this is the best song that is on the album. 

Tuning: Drop D tuning

Intro:

e|------------------------------------------------------------------------|
B|------------------------------------------------------------------------|
G|------------------------------------------------------------------------|
D|--7-5-4-4--7-5-4-4------------------------------------------------------|
A|--7-5-4-4--7-5-4-4------------------------------------------------------|
D|--7-5-4-4--7-5-4-4--0-0-0-0--0--0-0--0-0-0-0--0--0-0--0-0-0-0--0--0-0---|
                   pm|-------|   |------------|   |------------|   |----|

e|------------------------------------------------------------------------|
B|------------------------------------------------------------------------|
G|------------------------------------------------------------------------|
D|--7-5-4-4--7-5-4-4------------------------------------------------------|
A|--7-5-4-4--7-5-4-4------------------------------------------------------|
D|--7-5-4-4--7-5-4-4--0-0-0-0--0--0-0--0-0-0-0--0--0-0--0-0-0-0--0--0-0---|
                   pm|-------|   |------------|   |------------|   |----|

e|------------------------------------------------------------------------|
B|------------------------------------------------------------------------|
G|------------------------------------------------------------------------|
D|--7-5-4-4--7-5-4-4--7-7-7-7---------------------------------------------|
A|--7-5-4-4--7-5-4-4--7-7-7-7---------------------------------------------|
D|--7-5-4-4--7-5-4-4--7-7-7-7---------------------------------------------|

e|------------------------------------------------------------------------|
B|------------------------------------------------------------------------|
G|------------------------------------------------------------------------|
D|--0-9-9-9-9-12-9-7-7-7--0-5-5-5-5-9-7-7-7-7-0---------------------------|
A|--0-9-9-9-9-12-9-7-7-7--0-5-5-5-5-9-7-7-7-7-0---------------------------|
D|--0-9-9-9-9-12-9-7-7-7--0-5-5-5-5-9-7-7-7-7-0---------------------------|

e|------------------------------------------------------------------------|
B|------------------------------------------------------------------------|
G|------------------------------------------------------------------------|
D|--0-9-9-9-9-12-7-5-5-5--0-5-5-5-5-9-7-7-7-7-0---------------------------|
A|--0-9-9-9-9-12-7-5-5-5--0-5-5-5-5-9-7-7-7-7-0---------------------------|
D|--0-9-9-9-9-12-7-5-5-5--0-5-5-5-5-9-7-7-7-7-0---------------------------|

Then the singing comes in: "Could it be that i've mistaken you..."

Please rate.
            
Submit corrections

↑ Back to top | Tablatures and chords for acoustic guitar and electric guitar, ukulele, drums are parodies/interpretations of the original songs. You may use it for private study, scholarship, research or language learning purposes only