» » »

New Found Glory - Crazy For You Tabs

Artists:  A B C D E F G H I J K L M N O P Q R S T U V W X Y Z # 

Crazy For You Tabs

(ver. 1) Click to play this song!
New Found Glory
 Rating:
4/5 (4 votes)

 Crazy For You lessons Tabs too difficult? Try these video lessons and learn fast
 
                Lucena,Phils...
Cp #-09283150081
SHC(BSN) Lucena


Gtr1&2-drop D

Intro-
1.
Gtr1
|------------------------------------------------------------------------|
|------------------------------------------------------------------------|
|------------------------------------------------------------------------|
|-0~~~~~~~~~~~~~~~~~~~~~~~~~~~~~~~~~~~~~~~~~~~~~~~~~~~~~~~~~~~~~---------|
|-0~~~~~~~~~~~~~~~~~~~~~~~~~~~~~~~~~~~~~~~~~~~~~~~~~~~~~~~~~~~~~---------|
|-0~~~~~~~~~~~~~~~~~~~~~~~~~~~~~~~~~~~~~~~~~~~~~~~~~~~~~~~~~~~~~---------|

Gtr2
|------------------------------------------------------------------------|
|---10-10----10-10----10-10----10-10----10-10----10-10----10-10---10-10--|
|-7-------77-------77-------77------77--------77-------77------77--------|
|------------------------------------------------------------------------|
|------------------------------------------------------------------------|
|------------------------------------------------------------------------|

2.
Gtr1

|------------------------------------------------------------------------|
|-----------7-8--10~------8--7~------------------------------------------|
|-------------------------------9~---7~----------------------------------|
|-0~~~~~~~~~~~~~~~~~~~~~~~~~~~~~~~~~~~~~~~~~~~~~~~~~~~~~~~~~~~~~---------|
|-0~~~~~~~~~~~~~~~~~~~~~~~~~~~~~~~~~~~~~~~~~~~~~~~~~~~~~~~~~~~~~---------|
|-0~~~~~~~~~~~~~~~~~~~~~~~~~~~~~~~~~~~~~~~~~~~~~~~~~~~~~~~~~~~~~---------|


Gtr2

|------------------------------------------------------------------------|
|---10-10----10-10----10-10----10-10----10-10----10-10----10-10---10-10--|
|-7-------77-------77-------77------77--------77-------77------77--------|
|------------------------------------------------------------------------|
|------------------------------------------------------------------------|
|------------------------------------------------------------------------|


Verse-

1.Gtr1&2

|------------------------------------------------------------------------|
|------------------------------------------------------------------------|
|------------------------------------------------------------------------|
|-0~~~~~~~~~~~~~~~~~~~~~~~~~~~~~~~~~~~~~~~~~~~~~~~~~~~~~~~~~~~~~---------|
|-0~~~~~~~~~~~~~~~~~~~~~~~~~~~~~~~~~~~~~~~~~~~~~~~~~~~~~~~~~~~~~---------|
|-0~~~~~~~~~~~~~~~~~~~~~~~~~~~~~~~~~~~~~~~~~~~~~~~~~~~~~~~~~~~~~---------|


|------------------------------------------------------------------------|
|------------------------------------------------------------------------|
|------------------------------------------------------------------------|
|--5--7~~~---------------------------------------------------------------|
|--5--7~~~---------------------------------------------------------------|
|--5--7~~~---------------------------------------------------------------|


2.
Gtr1

|------------------------------------------------------------------------|
|------------------------------------------------------------------------|
|------------------------------------------------------------------------|
|-0~~~~~~~~5~-7~~~~~0~~~~~~5~--7~~~~~~~~~0~~~~~~5~--7~~~~~~~~------------|
|-0~~~~~~~~5~-7~~~~~0~~~~~~5~--7~~~~~~~~~0~~~~~~5~--7~~~~~~~~------------|
|-0~~~~~~~~5~-7~~~~~0~~~~~~5~--7~~~~~~~~~0~~~~~~5~--7~~~~~~~~------------|
Gtr2

|------------------------------------------------------------------------|
|---10-10----10-10----10-10----10-10----10-10----10-10----10-10---10-10--|
|-7-------77-------77-------77------77--------77-------77------77--------|
|------------------------------------------------------------------------|
|------------------------------------------------------------------------|
|------------------------------------------------------------------------|

3.
Gtr1

|------------------------------------------------------------------------|
|------------------------------------------------------------------------|
|------------------------------------------------------------------------|
|-99999999---55555--77---------------------------------------------------|
|-99999999---55555--77---------------------------------------------------|
|-99999999---55555--77---------------------------------------------------|

Gtr2

|------------------------------------------------------------------------|
|------------------------------------------------------------------------|
|-44444444---77777-------------------------------------------------------|
|-xxxxxxxx---xxxxx--77---------------------------------------------------|
|-22222222---55555--77---------------------------------------------------|
|-------------------77---------------------------------------------------|

Chorus-
Gtr1

|------------------------------------------------------------------------|
|------------------------------------------------------------------------|
|--------------------------7777777---------------------------------------|
|-0000000-4444444-9999999--7777777--5555555-44444444-5555555-7~----------|
|-0000000-4444444-9999999--5555555--5555555-44444444-5555555-7~----------|
|-0000000-4444444-9999999-----------5555555-44444444-5555555-7~----------|

Gtr2

|------------------------------------------------------------------------|
|------------------------------------------------------------------------|
|-7777777-6666666-4444444--7777777--7777777-66666666-7777777-9~----------|
|-xxxxxxx-xxxxxxx-xxxxxxx--xxxxxxx--xxxxxxx-xxxxxxxx-xxxxxxx-x-----------|
|-5555555-4444444-2222222--5555555--5555555-44444444-5555555-7~----------|
|------------------------------------------------------------------------|

Continued..
Gtr1

|------------------------------------------------------------------------|
|-----------7-8--10~------8--7~------------------------------------------|
|-------------------------------9~---7~----------------------------------|
|-0~~~~~~~~~~~~~~~~~~~~~~~~~~~~~~~~~~~~~~~~~~~~~~~~~~~~~~~~~~~~~---------|
|-0~~~~~~~~~~~~~~~~~~~~~~~~~~~~~~~~~~~~~~~~~~~~~~~~~~~~~~~~~~~~~---------|
|-0~~~~~~~~~~~~~~~~~~~~~~~~~~~~~~~~~~~~~~~~~~~~~~~~~~~~~~~~~~~~~---------|


Gtr2

|------------------------------------------------------------------------|
|---10-10----10-10----10-10----10-10----10-10----10-10----10-10---10-10--|
|-7-------77-------77-------77------77--------77-------77------77--------|
|------------------------------------------------------------------------|
|------------------------------------------------------------------------|
|------------------------------------------------------------------------|


VerseII -


1.Gtr1&2

|------------------------------------------------------------------------|
|------------------------------------------------------------------------|
|------------------------------------------------------------------------|
|-0~~~~~~~~5~-/7~~~~~0~~~~~~5~-/-7~~~~~~~~~0~~~~~~5~-/-7~~~~~~~~-5-7-----|
|-0~~~~~~~~5~-/7~~~~~0~~~~~~5~-/-7~~~~~~~~~0~~~~~~5~-/-7~~~~~~~~-5-7-----|
|-0~~~~~~~~5~-/7~~~~~0~~~~~~5~-/-7~~~~~~~~~0~~~~~~5~-/-7~~~~~~~~-5-7-----|
5

2.
Gtr1

|------------------------------------------------------------------------|
|------------------------------------------------------------------------|
|------------------6-7---------------------------------------------------|
|-0000000-5555-7777---7-0000000-5555-7777----0000000-5555-7777-----------|
|-0000000-5555-7777-----0000000-5555-7777----0000000-5555-7777-----------|
|-0000000-5555-7777-----0000000-5555-7777----0000000-5555-7777-----------|
  ******* **** ****     ******* **** ****    ******* **** ****

Gtr2

|------------------------------------------------------------------------|
|---10-10----10-10----10-10----10-10----10-10----10-10----10-10---10-10--|
|-7-------77-------77-------77------77--------77-------77------77--------|
|------------------------------------------------------------------------|
|------------------------------------------------------------------------|
|------------------------------------------------------------------------|


,chorus2x &continued

Bridge-

trying hard..
Gtr1&2

|------------------------------------------------------------------------|
|------------------------------------------------------------------------|
|------------------------------------------------------------------------|
|-0-0-0-0-0-0-0-0-0-0-0-0-0-0-0-0-0-0-0-0-0-0-0-0-0-0-0-0-0-0------------|
|-0-0-0-0-0-0-0-0-0-0-0-0-0-0-0-0-0-0-0-0-0-0-0-0-0-0-0-0-0-0------------|
|-0-0-0-0-0-0-0-0-0-0-0-0-0-0-0-0-0-0-0-0-0-0-0-0-0-0-0-0-0-0------------|

pap..pap..

|------------------------------------------------------------------------|
|------------------------------------------------------------------------|
|------------------------------------------------------------------------|
|-00-0-0-55555-77777---00-0-0-55555-77777---00-0-0-55555-77777-----------|
|-00-0-0-55555-77777---00-0-0-55555-77777---00-0-0-55555-77777-----------|
|-00-0-0-55555-77777---00-0-0-55555-77777---00-0-0-55555-77777-----------|
  ** * *               ** * *               ** * *       

|------------------------------------------------------------------------|
|------------------------------------------------------------------------|
|------------------------------------------------------------------------|
|-00-0-0-55555-77777---00-0-0-55555-77777---00-0-0-5~-7~----0~-----------|
|-00-0-0-55555-77777---00-0-0-55555-77777---00-0-0-5~-7~----0~-----------|
|-00-0-0-55555-77777---00-0-0-55555-77777---00-0-0-5~-7~----0~-----------|
  ** * *               ** * *               ** * *  
            
Submit corrections


        Crazy For You lessons Hard to play? Try these video lessons and learn fast Crazy For You lessons
        
↑ Back to top | Tablatures and chords for acoustic guitar and electric guitar, ukulele, drums are parodies/interpretations of the original songs. You may use it for private study, scholarship, research or language learning purposes only