» » »

New Found Glory - Boy Crazy Tabs

Artists:  A B C D E F G H I J K L M N O P Q R S T U V W X Y Z # 

Boy Crazy Tabs

(ver. 3) Click to play this song!
New Found Glory
 Rating:
4/5 (4 votes)

 Boy Crazy lessons Tabs too difficult? Try these video lessons and learn fast
 
                - HELP:      


Intro:
e|--------------------------------------------------------------------|
B|--------------------------------------------------------------------|
G|--------------------------------------------------------------------|
D|------- 6-6-7-7-7-7-7-----------------------------------------------|
A|-7-7-7-74-4-5-5-5-5-5-4-4-4-2-2-2-2-2-2-2---------------------------|
E|-5-5-5-5--------------2-2-2-0-0-0-0-0-0-0---------------------------|
Verse: guitar 1 plays intro, guitar 2 plays this
e|--------------------------------------------------------------------|
B|--------------------------------------------------------------------|
G|--------------------------------------------------------------------|
D|-------6-6-7-7-7-7-7-11/11/11/9-9-9-9-9-9-9-------------------------|
A|-7-7-7-4-4-5-5-5-5-5-9--9--9--7-7-7-7-7-7-7-------------------------|
E|-5-5-5------------—-- ----------------------------------------------|

e|--------------------------------------------------------------------|
B|--------------------------------------------------------------------|
G|--------------------------------------------------------------------|
D|-7-|-6|-4|-2|-------------------------------------------------------|
A|-5-|-4|-2|-0|-------------------------------------------------------|
E|-----------------for these notes hit it once then pm----------------|

e|--------------------------------------------------------------------|
B|--------------------------------------------------------------------|
G|--------------------------------------------------------------------|
D|-11|--14|-----------------------------------------------------------|
A|-9—|--12|-----------------------------------------------------------| 
E|--------------------------------------------------------------------|
Play this when he says….now r u listening……..-guitar 1
e|--------------------------------------------------------------------|
B|--------------------------------------------------------------------|
G|--------------------------------------------------------------------|
D|-------------------9------------------------------------------------|
A|-7-7----7-7----7-7-7------------------------------------------------|
E|-5-5----5-5----5-5--------------------------------------------------|
Guitar 2 on ……now r u listening…
e|--------------------------------------------------------------------|
B|--------------------------------------------------------------------|
G|---------9-----9-9--------------------------------------------------|
D|-----7777--7777---7-7-9---------------------------------------------|
A|--------------------------------------------------------------------|
E|--------------------------------------------------------------------|
Chorus
e|--------------------------------------------------------------------|
B|--------------------------------------------------------------------|
G|--------------------------------------------------------------------|
D|--------9--7-7-7-79-------------------------------------------------|
A|-7-7-7-77--5-5-5-57-------------------------------------------------|
E|-5-5-5-5------------------------------------------------------------|
Bridge- guitar 1
e|--------------------------------------------------------------------|
B|--------------------------------------------------------------------|
G|--------------------------------------------------------------------|
D|--------------------------------------------------------------------|
A|-7-7--7-7--7-7--7-7--7-7--7-7--7-7--7-7-----------------------------|
E|-5-5--5-5--5-5--5-5--5-5--5-5--5-5--5-5-----------------------------|
Bridge- guitar 2/repeat this about 4x
e|--------------------------------------------------------------------|
B|--------------------------------------------------------------------|
G|----9------9--------------------------------------------------------|
D|-777----777---------------------------------------------------------|
A|--------------------------------------------------------------------|
E|--------------------------------------------------------------------|
This part is pretty much all pm/both guitars
e|--------------------------------------------------------------------|
B|--------------------------------------------------------------------|
G|--------------------------------------------------------------------|
D|-7-|-6-|-4-|--------------------9-----------------------------------|
A|-5-|-4-|-2-|----------7-7-7-7-77------------------------------------|
E|---|---|---|-stop pm--5-5-5-5-5-------------------------------------|

Play order:
Intro
Verse
Chorus
Intro
Verse 
Chorus
Bridge
Chorus
            
Submit corrections


        Boy Crazy lessons Hard to play? Try these video lessons and learn fast Boy Crazy lessons
        
↑ Back to top | Tablatures and chords for acoustic guitar and electric guitar, ukulele, drums are parodies/interpretations of the original songs. You may use it for private study, scholarship, research or language learning purposes only