» » »

New Found Glory - Black And Blue Tabs

Artists:  A B C D E F G H I J K L M N O P Q R S T U V W X Y Z # 

Black And Blue Tabs

(ver. 1) Click to play this song!
New Found Glory
 Rating:
4/5 (6 votes)

 Black And Blue lessons Tabs too difficult? Try these video lessons and learn fast
 
                                    Black & Blue

Intro
e|---------------------------------------------------------------------------|
B|---------------------------------------------------------------------------|
G|---------------6-6-4-4-4-4-4---------------6-6-6-4-4-4---------------------|
D|-7-7-6-6-6-6-6-6-6-4-4-4-4-4-7-7-6-6-6-6-6-6-6-6-4-4-4-7-7-6-6-6-6-6-------|
A|-7-7-6-6-6-6-6-4-4-2-2-2-2-2-7-7-6-6-6-6-6-4-4-4-2-2-2-7-7-6-6-6-6-6-------|
E|-5-5-4-4-4-4-4---------------5-5-4-4-4-4-4-------------5-5-4-4-4-4-4-------|
                                             * *   * *  

e|---------------------------------------------------------------------------|
B|---------------------------------------------------------------------------|
G|-6-6-4-4-4-4-4---------------6-6-6-4-4-4-2-2-2-2-2-2-2-4-4-4-4-4-----------|
D|-6-6-4-4-4-4-4-7-7-6-6-6-6-6-6-6-6-4-4-4-2-2-2-2-2-2-2-4-4-4-4-4-----------|
A|-4-4-2-2-2-2-2-7-7-6-6-6-6-6-4-4-4-2-2-2-0-0-0-0-0-0-0-2-2-2-2-2-----------|
E|---------------5-5-4-4-4-4-4-----------------------------------------------|
                               * *   * *     * * * * * * * * * *

Verse x 4 (on last time pick scr*pe instead of the opens)
e|---------------------------------------0-----------------------------------|
B|-----------------------------------------0~--------------------------------|
G|-------------6-6-6-6-6-6---------------------------------------------------|
D|-2-2-2-2-2-2-6-6-6-6-6-6-7-7-7-7-7-7---------------------------------------|
A|-2-2-2-2-2-2-4-4-4-4-4-4-7-7-7-7-7-7---------------------------------------|
E|-0-0-0-0-0-0-------------5-5-5-5-5-5---------------------------------------|

Chorus x 1
e|---------------------------------------------------------------------------|
B|---------------------------------------------------------------------------|
G|-6-6-7-9-------------6-6-7-9--------------6-6-7-9--------------------------|
D|-6-6-7-9-9-7-7-7-7-9-6-6-7-9-9-7-7--7-7-7-6-6-7-9-9-7-7-7-7----------------|
A|-4-4-5-7-9-7-7-7-7-9-4-4-5-7-9-7-7--7-7-7-4-4-5-7-9-7-7-7-7----------------|
E|---------7-5-5-5-5-7---------7-5-5--5-5-5---------7-5-5-5-5----------------|
   * * * * * * * * * * * * * * * * *  * * * * * * * * * * * *

e|---------------------------------------------------------------------------|
B|---------------------------------------------------------------------------|
G|-------------8-8-8-8-8-8-9-------------------------------------------------|
D|-9-9-9-9-9-9-8-8-8-8-8-8-9-------------------------------------------------|
A|-9-9-9-9-9-9-6-6-6-6-6-6-7-------------------------------------------------|
E|-7-7-7-7-7-7---------------------------------------------------------------|

e|---------------------------------------------------------------------------|
B|---------------------------------------------------------------------------|
G|-6-6-6-4-4-4-2-2-2-2-2-2-6-6-6-4-4-4-6-6-4-6-6-6-4-4-4-2-2-2-2-2-2-4-4-4-4-|
D|-6-6-6-4-4-4-2-2-2-2-2-2-6-6-6-4-4-4-6-6-4-6-6-6-4-4-4-2-2-2-2-2-2-4-4-4-4-|
A|-4-4-4-2-2-2-0-0-0-0-0-0-4-4-4-2-2-2-4-4-2-4-4-4-2-2-2-0-0-0-0-0-0-2-2-2-2-|
E|---------------------------------------------------------------------------|
                           * *   * *                       * * * * * * * *
Verse x 1
e|--------------------------------------0------------------------------------|
B|----------------------------------------0----------------------------------|
G|-------------6-6-6-6-6-6-------------------------------6-6-6-6-6-6---------|
D|-2-2-2-2-2-2-6-6-6-6-6-6-7-7-7-7-7-7-------2-2-2-2-2-2-6-6-6-6-6-6---------|
A|-2-2-2-2-2-2-4-4-4-4-4-4-7-7-7-7-7-7-------2-2-2-2-2-2-4-4-4-4-4-4---------|
E|-0-0-0-0-0-0-------------5-5-5-5-5-5-------0-0-0-0-0-0---------------------|


e|--------------------------------------------------------------0------------|
B|----------------------------------------------------------------0----------|
G|-------------------------------------6-6-6-6-6-6---------------------------|
D|-7-7-7-7-7-7-7-7-7-7-7-7-2-2-2-2-2-2-6-6-6-6-6-6-7-7-7-7-7-7---------------|
A|-7-7-7-7-7-7-7-7-7-7-7-7-2-2-2-2-2-2-4-4-4-4-4-4-7-7-7-7-7-7---------------|
E|-5-5-5-5-5-5-5-5-5-5-5-5-0-0-0-0-0-0-------------5-5-5-5-5-5---------------|

e|---------------------------------------------------------------------------|
B|---------------------------------------------------------------------------|
G|-------------6-6-6-6-6-6---------------------------------------------------|
D|-2-2-2-2-2-2-6-6-6-6-6-6-7-7-7-7-7-7-7-7-7-7-7-7---------------------------|
A|-2-2-2-2-2-2-4-4-4-4-4-4-7-7-7-7-7-7-7-7-7-7-7-7------- pick scr*pe -------|
E|-0-0-0-0-0-0-------------5-5-5-5-5-5-5-5-5-5-5-5->->->->->->->->->->->->->-|

Chorus x 1

Finish
e|---0------------|----------------------------------------------------------|
B|-----0----------|----------------------------------------------------------|
G|----------------|----------------------------------------------------------|
D|-2--------------|--2-----7-----9-------------------------------------------|
A|----------------|--2-----7-----9-------------------------------------------|
E|----------------|--0-----5-----7-------------------------------------------|
            
Submit corrections


        Black And Blue lessons Hard to play? Try these video lessons and learn fast Black And Blue lessons
        
↑ Back to top | Tablatures and chords for acoustic guitar and electric guitar, ukulele, drums are parodies/interpretations of the original songs. You may use it for private study, scholarship, research or language learning purposes only