» » »

New Found Glory - Ballad For The Lost Romantics Tabs

Artists:  A B C D E F G H I J K L M N O P Q R S T U V W X Y Z # 

Ballad For The Lost Romantics Tabs

(ver. 1) Click to play this song!
New Found Glory
 Rating:
4.4/5 (7 votes)

 Ballad For The Lost Romantics lessons Tabs too difficult? Try these video lessons and learn fast
 
                "Ballad For The Lost Romantics" - A New Found Glory

Intro
e|-----------------------------|
B|-----------------------------|
G|-----------------------------|
D|--------10-------------------|
A|--10-----8-------------------|
E|---8-------------------------|

Verse:
e|-----------------------------|
B|-----------------------------|
G|-----------------------------|
D|----5----3-------------------|
A|----5----3-------------------|
E|----3----1-------------------|

Lead Part Chad plays right after second verse
e|-----------------------------|
B|-----------------------------|
G|-----------------------------|
D|-----------------------------|
A|--7h8-7h8-7-8-7-8------------|
E|-----------------------------|

Chorus: "Heres to us fools...."
e|-----------------------------------------|
B|-----------------------------------------|
G|---5-------------------------------------|
D|---5---2---3--3--------------------------|
A|---3---2---3--3--------------------------|
E|-------0---1--1--------------------------|

This is exactly how NFG play it live.
            
Submit corrections


        Ballad For The Lost Romantics lessons Hard to play? Try these video lessons and learn fast Ballad For The Lost Romantics lessons
        
↑ Back to top | Tablatures and chords for acoustic guitar and electric guitar, ukulele, drums are parodies/interpretations of the original songs. You may use it for private study, scholarship, research or language learning purposes only