Home » N » New Found Glory »

New Found Glory - Back That Ass Up Tabs

Artists:  A B C D E F G H I J K L M N O P Q R S T U V W X Y Z # 

Back That Ass Up Tabs

(ver. 3) Click to play this song!
New Found Glory
 Rating:
4/5 (4 votes)
                Intro: Clean
e|------------------------------------------|
B|------------------------------------------|
G|------------------------------------------|
D|---7----------5---------3-----------------|
A|---5----------3---------1-----------------|
E|------------------------------------------|


Verse: Distorted
X2
e|------------------------------------------|
B|------------------------------------------|
G|------------------------------------------|
D|---7777----------5---------3333-----------|
A|---5555----------3---------1111-----------|
E|------------------------------------------|

Verse 2:
X1
e|----------------------------------------------------------------|
B|----------------------------------------------------------------|
G|----------------------------------------------------------------|
D|---7777----------5---------3333-----------------------7777------|
A|---5555----------3---------1111----555----777------5555---------|
E|----------------------------------------333-----555-------------|


Rithym: Through out song
X2
e|------5---------3--------5--6--5------3-----1----------|
B|-----------3-------------------------------------------|
G|-------------------------------------------------------|
D|-------------------------------------------------------|
A|-------------------------------------------------------|
E|-------------------------------------------------------|

Rythim:
X1
e|-----5-------------------------------------------------|
B|-----------3----------5--6--5-------3-----1---3--------|
G|-------------------------------------------------------|
D|-------------------------------------------------------|
A|-------------------------------------------------------|
E|-------------------------------------------------------|




This was my fifth tab, I did because the other ones didnt seem right. Hope you like it, thank you
            
Submit corrections

↑ Back to top | Tablatures and chords for acoustic guitar and electric guitar, ukulele, drums are parodies/interpretations of the original songs. You may use it for private study, scholarship, research or language learning purposes only