» » »

New Found Glory - All About Her Tabs

Artists:  A B C D E F G H I J K L M N O P Q R S T U V W X Y Z # 

All About Her Tabs

(ver. 3) Click to play this song!
New Found Glory
 Rating:
4/5 (4 votes)

 All About Her lessons Tabs too difficult? Try these video lessons and learn fast
 
                                         All About Her

Intro/Chorus x 2
e|---------------------------------------------------------------------------|
B|---------------------------------------------------------------------------|
G|---------------4-4--4--------6-6--6----------------------------------------|
D|-2-2--2--------4-4--4--------6-6--6-------7-7--7---------------------------|
A|-2-2--2--------2-2--2--------4-4--4-------7-7--7---------------------------|
E|-0-0--0--2--4----------2--4----------2-4--5-5--5--4--2---------------------|

Verse x 2
e|---------------------------------------------------------------------------|
B|---------------------------------------------------------------------------|
G|---------------------------------------------------------------------------|
D|-2--2-2~-----2--2-2--------7p6---7p6---7p6-7---7p6---7p6---7p6-9-----------|
A|-2--2-2~-----2--2-2------------7-----7-------------7-----7-----------------|
E|-0--0-0~-----0--0-0--------------------------------------------------------|

Pre Chorus x 2
e|---------------------------------------------------------------------------|
B|---------------------------------------------------------------------------|
G|-----------4--------6---4-4--6--4-4--2-2-----------------------------------|
D|---2--2-2--4--7--7--6---4-4--6--4-4--2-2--2-2-2----------------------------|
A|---2--2-2--2--7--7--4---2-2--4--2-2--0-0--2-2-2----------------------------|
E|---0--0-0-----5--5------------------------0-0-0----------------------------|

Chorus x 4

Verse x 2

Pre Chorus x 2

Chorus x 4

Bridge x 2
e|---------------------------------------------------------------------------|
B|----5-4-5------5-4-5-4-5-----5-4-5-4-5-----5-4-5-4-5-----------------------|
G|---------------------------------------------------------------------------|
D|---------------------------------------------------------------------------|
A|---------------------------------------------------------------------------|
E|---------------------------------------------------------------------------|

Chorus x 8
            
Submit corrections


        All About Her lessons Hard to play? Try these video lessons and learn fast All About Her lessons
        
↑ Back to top | Tablatures and chords for acoustic guitar and electric guitar, ukulele, drums are parodies/interpretations of the original songs. You may use it for private study, scholarship, research or language learning purposes only