» » »

Mxpx - Doing Time Tabs

Artists:  A B C D E F G H I J K L M N O P Q R S T U V W X Y Z # 

Doing Time Tabs

(ver. 3) Click to play this song!
Mxpx
 Rating:
4/5 (4 votes)

 Doing Time lessons Tabs too difficult? Try these video lessons and learn fast
 
                Tuning: Standard

Great song from Mxpx, but Mxpx are just a great band. Easy song!

Intro 
E|----------------------------------------|
B|----------------------------------------|
G|-11-13-10-11-8-10-11-13-10-11-8-6-------|
D|-x--x--x--x--x-x--x--x--x--x--x-x-------|
A|-9--11-8--9--6-8--9--11-8--9--6-4-------|
E|----------------------------------------|

Verse 1
E|---------------------------------------|
B|---------------------------------------|
G|---------6666666-4444444-6666666-------|
D|-4444444-6666666-4444444-6666666-------|
A|-4444444-4444444-2222222-4444444-------|
E|-2222222-------------------------------|

E|---------------------------------------|
B|---------------------------------------|
G|---------6666666-4444444-6666666-------|
D|-4444444-6666666-4444444-6666666-------|
A|-4444444-4444444-2222222-4444444-------|
E|-2222222-------------------------------|
                Pm|----------------|
Chorus
E|-------------------------------------------|
B|-------------------------------------------|
G|---------------------4444444444-6----------|
D|-444444444-222222222-4444444444-6-let ring-|
A|-444444444-222222222-2222222222-4----------|
E|-222222222-000000000-----------------------|

E|----------------------------------------|
B|----------------------------------------|
G|-11-13-10-11-8-10-11-13-10-11-8-6-------|
D|-x--x--x--x--x-x--x--x--x--x--x-x-------|
A|-9--11-8--9--6-8--9--11-8--9--6-4-------|
E|----------------------------------------|

Verse 2
E|---------------------------------------|
B|---------------------------------------|
G|---------6666666-4444444-6666666-------|
D|-4444444-6666666-4444444-6666666-------|
A|-4444444-4444444-2222222-4444444-------|
E|-2222222-------------------------------|

E|---------------------------------------|
B|---------------------------------------|
G|---------6666666-4444444-6666666-------|
D|-4444444-6666666-4444444-6666666-------|
A|-4444444-4444444-2222222-4444444-------|
E|-2222222-------------------------------|
                Pm|----------------|
Chorus
E|-------------------------------------------|
B|-------------------------------------------|
G|---------------------4444444444-6----------|
D|-444444444-222222222-4444444444-6-let ring-|
A|-444444444-222222222-2222222222-4----------|
E|-222222222-000000000-----------------------|

Bridge
E|-------------------------------------------------------|
B|-------------------------------------------------------|
G|-10-11-11-11-11-11-10-11-11-11-11-11-11-10/11\10-11----|
D|-------------------------------------------------------|
A|-8--9--9--9--9--9--8--9--9--9--9--9--9--8-/9-\8--9-----|
E|-------------------------------------------------------|

Let all notes Ring Besides The Last Chord
E|------------------------------|
B|------------------------------|
G|-8----6----4----6---6---------|
D|-8----6----4----6---6---------|
A|-6----4----2----4---4---------|
E|------------------------------|

E|----------------------------------------|
B|----------------------------------------|
G|-11-13-10-11-8-10-11-13-10-11-8-6-------|
D|-x--x--x--x--x-x--x--x--x--x--x-x-------|
A|-9--11-8--9--6-8--9--11-8--9--6-4-------|
E|----------------------------------------|

Outro
E|---------------------------------------|
B|---------------------------------------|
G|---------6666666-4444444-6666666-------|
D|-4444444-6666666-4444444-6666666-------|
A|-4444444-4444444-2222222-4444444-------|
E|-2222222-------------------------------|

E|---------------------------------------|
B|---------------------------------------|
G|---------6666666-4444444-6666666-------|
D|-4444444-6666666-4444444-6666666---4---|
A|-4444444-4444444-2222222-4444444---4---|
E|-2222222---------------------------2---|
                Pm|----------------|
            
Submit corrections


        Doing Time lessons Hard to play? Try these video lessons and learn fast Doing Time lessons
        
↑ Back to top | Tablatures and chords for acoustic guitar and electric guitar, ukulele, drums are parodies/interpretations of the original songs. You may use it for private study, scholarship, research or language learning purposes only