» » »

Mxpx - Doing Time Tabs

Artists:  A B C D E F G H I J K L M N O P Q R S T U V W X Y Z # 

Doing Time Tabs

(ver. 1) Click to play this song!
Mxpx
 Rating:
4/5 (4 votes)

 Doing Time lessons Tabs too difficult? Try these video lessons and learn fast
 
                tunning is standared
palm mute = -
/ = slide up 
\ = slide down
~ = let ring

bad ass song that seemed pretty easy. this is correct


intro (guitar 1) 1x's
-11/13-13---10/11-11--11--8-8-8-8-10-10-10---11/13-13---10/11-11-11---8-8-8-8-6-6-6-
-x--x--x-----x--x--x--x---x-x-x-x-x--x--x----x--x--x-----x--x--x--x---x-x-x-x-x-x-x-
-9-/11-11----8-/9--9--9---6-6-6-6-8--8--8----9-/11-11----8-/9--9--9---6-6-6-6-4-4-4-

intro (guitar 2) 2x's
------------------------------------------------------------
------------------------------------------------------------
---------------6---6-6---6--6---4-4---4-4-4---6---6-6--6--6-
-4-4---4-4-4---6---6-6---6--6---4-4---4-4-4---6---6-6--6--6-
-4-4---4-4-4---4---4-4---4--4---2-2---2-2-2---4---4-4--4--4-
-2-2---2-2-2------------------------------------------------ 



verse  1x's
------------------------------------------------------------
------------------------------------------------------------
---------------6---6-6---6--6---4-4---4-4-4---6---6-6--6--6-
-4-4---4-4-4---6---6-6---6--6---4-4---4-4-4---6---6-6--6--6-
-4-4---4-4-4---4---4-4---4--4---2-2---2-2-2---4---4-4--4--4-
-2-2---2-2-2------------------------------------------------ 

---------------6---6-6---6--6---4--44444444444444-6--66666666666666-
-4-4---4-4-4---6---6-6---6--6---4--44444444444444-6--66666666666666-
-4-4---4-4-4---4---4-4---4--4---2--22222222222222-4--44444444444444-
-2-2---2-2-2--------------------------------------------------------
                                   --------------    -------------- 


chorus  1x's
----------------------------------------------------4-4-4---4-4--4-4---4--4---6~--
-4-4-4---4-4--4-4---4--4---2-2-2---2-2--2-2---2--2--4-4-4---4-4--4-4---4--4---6~--
-4-4-4---4-4--4-4---4--4---2-2-2---2-2--2-2---2--2--2-2-2---2-2--2-2---2--2---4~--
-2-2-2---2-2--2-2---2--2---0-0-0---0-0--0-0---0--0--------------------------------


then intro (guitar 1) 1x's   with   intro (guitar 2) 2x's
then verse  1x's
then chorus  1x's


solo (guitar 1)  1x's
-10/111111111111111111111111111111-10/111111111111111111111111111111-
-x----x-x-x-x-x-x-x-x-x-x-x-x-x-x--x----x-x-x-x-x-x-x-x-x-x-x-x-x-x--
-8-/9-9-9-9-9-9-9-9-9-9-9-9-9-9-9--8-/9-9-9-9-9-9-9-9-9-9-9-9-9-9-9--

-10/1111111111-10/1111111111-10/111111-10/11111111111-10/1111111111-10/111111-
-x----x-x-x-x--x----x-x-x-x--x----x-x---x----x-x-x-x--x----x-x-x-x--x----x-x--
-8-/9-9-9-9-9--8-/9-9-9-9-9--8-/9-9-9---8-/9-9-9-9-9--8-/9-9-9-9-9--8-/9-9-9--
guitar 2 plays verse durring the solo 2x's



then
------------------------------------------
------------------------------------------
-8~---------6~---------4~---------6~----6-
-8~---------6~---------4~---------6~----6-
-6~---------4~---------2~---------4~----4-
------------------------------------------


then intro (guitar 1)  1x's     with     intro (guitar 2) 2x's
then verse


end
---------
---------
---------
-4~----4-
-4~----4-
-2~----2-


that's it (please rate)
theroofingfiddler
            
Submit corrections


        Doing Time lessons Hard to play? Try these video lessons and learn fast Doing Time lessons
        
↑ Back to top | Tablatures and chords for acoustic guitar and electric guitar, ukulele, drums are parodies/interpretations of the original songs. You may use it for private study, scholarship, research or language learning purposes only