» » »

Mxpx - Scooby Doo Tabs

Artists:  A B C D E F G H I J K L M N O P Q R S T U V W X Y Z # 

Scooby Doo Tabs

(ver. 1) Click to play this song!
Mxpx
 Rating:
4/5 (4 votes)

 Scooby Doo lessons Tabs too difficult? Try these video lessons and learn fast
 
                Scooby Doo where Are You???
koooool and simple song
Intro:

e|-------------------------------------------------|
B|-------------------------------------------------|
G|------99------99------99-----99-----99---9---911-|
D|-9----99-9----99-9----99-999-99-999-99-9-9-9-911-|
A|-9x12-77-9x12-77-9x12-77-999-77-999-77-9-7-9-79--|
E|-7-------7-------7-------777----777----7---7-----|

Verse: part 1
Scooby Dooby Doo......

e|----------------------------------------|
B|----------------------------------------|
G|-44444444-66666666----------44444444-4.-|
D|-44444444-66666666-44444444-44444444-4.-|x2
A|-22222222-44444444-44444444-22222222-2.-|
E|-------------------22222222-------------|
  ........P.M...... ........ ........

Verse: part 2
Come On Scooby Doo, I See You.......

e|--------------------------------------|
B|--------------------------------------|
G|-44444444-66666666----------44444444--|
D|-44444444-66666666-44444444-44444444--|x2
A|-22222222-44444444-44444444-22222222--|
E|-------------------22222222-----------|

Verse part 3:

e|------------------------------------------------|
B|------------------------------------------------|
G|-9-9-9-9-9-9-99---99---9-9-9-9-9-9-99-11-111111-|
D|-9-9-9-9-9-9-99-9-99-9-9-9-9-9-9-9-99-11-111111-|
A|-7-7-7-7-7-7-77-9-77-9-7-7-7-7-7-7-77-9--9-9-9--|
E|----------------7----7--------------------------|

Pre Solo Thingy:

e|---------|
B|---------|
G|-4-----44|
D|-4-2-4-44|x3 on the 4th time hold the note with the star
A|-2-2-4-22|
E|---0-2---|
      *

Solo:


e|-----------------------------------------------|
B|---4--2--0--0--2--4---------------4--4--2--0---|
G|---------------------1--1----------------------|
D|----------------------------4--4---------------|
A|-----------------------------------------------|
E|-----------------------------------------------|

e|-----------------------------------------------|
B|---4--2--0--0--2--4--5--5---------4--4--2--0---|
G|-----------------------------------------------|
D|----------------------------4--4---------------|
A|-----------------------------------------------|
E|-----------------------------------------------|

once again ING PING PUDDING STING
            
Submit corrections


        Scooby Doo lessons Hard to play? Try these video lessons and learn fast Scooby Doo lessons
        
↑ Back to top | Tablatures and chords for acoustic guitar and electric guitar, ukulele, drums are parodies/interpretations of the original songs. You may use it for private study, scholarship, research or language learning purposes only