» » »

Mxpx - Doing Time Tabs

Artists:  A B C D E F G H I J K L M N O P Q R S T U V W X Y Z # 

Doing Time Tabs

(ver. 2) Click to play this song!
Mxpx
 Rating:
4/5 (4 votes)

 Doing Time lessons Tabs too difficult? Try these video lessons and learn fast
 
                ~ = let ring
x = palm mute

Intro:
|------------------------------------------------------|
|------------------------------------------------------|
|-11----13----11----10----11----10----8888----10101010-|
|-x-----x-----x-----x-----x-----x-----xxxx----x-x-x-x--| x2
|-9-----11----9-----8-----9-----8-----6666----8-8-8-8--|
|------------------------------------------------------|

Verse:
|------------------------------------------------------------------------|
|------------------------------------------------------------------------|
|------------------------------------------------------------------------|
|-11111111-1111111-9999-1111111-1111111-1111111-999999999-11111111111111-|
|-9-9-9-9--1111111-9999-1111111-9-9-9-9-1111111-999999999-11111111111111-|
|----------9-9-9-9-7777-9-9-9-9---------9-9-9-9-777777777-9-9-9-9-9-9-9--|
                                                 xxxxxxxx x x x x x x x
Chorus:
|----------------------------------------------|
|----------------------------------------------|
|----------------------------------------------|
|-111111111111111-111111111111111-99999999-11~-|
|-9-9-9-9-9-9-9-9-111111111111111-99999999-11~-|
|-----------------9-9-9-9-9-9-9-9-77777777-9~--|

INTRO
VERSE
CHORUS

Solo:
|---------------------------------------------------------|
|---------------------------------------------------------|
|-10/-1111111-10/-1111111-10/-1111-10/-11-10/-1111-10/-11-|
|---------------------------------------------------------|
|-8/--9999999-8/--9999999-8/--9-9--8/--9--8/--9-9--8/--9--|
|---------------------------------------------------------|

Bridge:
|----------------------------|
|----------------------------|
|-11------11------9-------11-|
|-9-------11------9-------11-|
|---------9-------7-------9--|

INTRO

End:
|------------------------------------------------------------------------|
|------------------------------------------------------------------------|
|------------------------------------------------------------------------|
|-11111111-1111111-9999-1111111-1111111-1111111-999999999-11111111111111-|
|-9-9-9-9--1111111-9999-1111111-9-9-9-9-1111111-999999999-11111111111111-|
|----------9-9-9-9-7777-9-9-9-9---------9-9-9-9-777777777-9-9-9-9-9-9-9--|
                                                 xxxxxxxx x x x x x x x
            
Submit corrections


        Doing Time lessons Hard to play? Try these video lessons and learn fast Doing Time lessons
        
↑ Back to top | Tablatures and chords for acoustic guitar and electric guitar, ukulele, drums are parodies/interpretations of the original songs. You may use it for private study, scholarship, research or language learning purposes only