» » »

Muse - Psycho Bass

Artists:  A B C D E F G H I J K L M N O P Q R S T U V W X Y Z # 

Psycho Bass

(ver. 7) Click to play this song!
Muse
 Rating:
4.3/5 (20 votes)


 Psycho  lessons Tabs too difficult? Try these video lessons and learn fast
 
                [Intro] (Starts at around 00:12) 
G|------------------------------------|---------------------------------------|
D|-12-12-12-12-12-12-12-12-12-12-12-12|-12-12-12-12-12-12-12-12-12--12/-------|
A|------------------------------------|---------------------------------------|
D|------------------------------------|---------------------------------------|

G|-------------------------|---------------|
D|-------------------------|---------------|
A|-------------------------|---------------|
D|-0-3-0-5-0-3-0-0-3-0-5/6-|-0-3-0-5-0-3-0-|

G|-------------------------|----------------------------|----------------|
D|-------------------------|----------------------------|----------------|
A|-------------------------|----------------------------|----------------|
D|-0-3-0-5-0-3-0-0-3-0-5/6-|-0-3-0-5-0-3-0--0-4-0-5-6-0-|-7-8-7-11-7-8-7-|

G|----------------|---------------|--------------|
D|----------------|---------------|--------------|
A|----------------|---------------|---3------4---|
D|-7-8-7-11-7-8-7-|-5-7-5-8-7-5-3-|-3---2--2---2-|

G|-------------------------|------------------------|
D|-12-0-11--7-b7--5-0-3-2-1|------------------------|
A|-------------------------|--5-0-3-1-0-------------|
D|-------------------------|-------------5-0-3-2-1--|

[Verse 1] 
G|--------------|------------------------------------|
D|--------------|------------------------------------|
A|-5-5-5-5-5(x4)|-8-8-8-8-8/3-3-3-3-3----------------|(x2)
E|--------------|----------------------5-5-5-5-5(x2)-|

G|-------------------------------------|
D|-------------------------------------|
A|-5-5-5-5-5--5-5-5-5-5--5-5-5-5-5--5/-|
E|-------------------------------------|

[Chorus 1]
G|-------------------------|---------------|
D|-------------------------|---------------|
A|-------------------------|---------------|
D|-0-3-0-5-0-3-0-0-3-0-5/6-|-0-3-0-5-0-3-0-|

G|-------------------------|----------------------------|----------------|
D|-------------------------|----------------------------|----------------|
A|-------------------------|----------------------------|----------------|
D|-0-3-0-5-0-3-0-0-3-0-5/6-|-0-3-0-5-0-3-0--0-4-0-5-6-0-|-7-8-7-11-7-8-7-|

G|----------------|---------------|--------------|
D|----------------|---------------|--------------|
A|----------------|---------------|---3------4---|
D|-7-8-7-11-7-8-7-|-5-7-5-8-7-5-3-|-3---2--2---2-|

G|--------------------------|-----------------------|
D|-12-0-11--7-b7--5-0-3-2-1-|-----------------------|
A|--------------------------|-5-0-3-1-0-------------|
D|--------------------------|------------5-0-3-2-1--|

[Verse 2] 
G|---------------|-----------------------------------|
D|---------------|-----------------------------------|
A|-5-5-5-5-5(x4)-|8-8-8-8-8/3-3-3-3-3----------------|(x2)
E|---------------|---------------------5-5-5-5-5(x2)-|

G|-------------------------------------|
D|-------------------------------------|
A|-5-5-5-5-5--5-5-5-5-5--5-5-5-5-5--5/-|
E|-------------------------------------|

[Chorus 2]
G|-------------------------|----------------|
D|-------------------------|----------------|
A|-------------------------|----------------|
D|-0-3-0-5-0-3-0-0-3-0-5/6-|-0-3-0-5-0-3-0--|

G|-------------------------|----------------------------|----------------|
D|-------------------------|----------------------------|----------------|
A|-------------------------|----------------------------|----------------|
D|-0-3-0-5-0-3-0-0-3-0-5/6-|-0-3-0-5-0-3-0--0-4-0-5-6-0-|-7-8-7-11-7-8-7-|

G|----------------|---------------|--------------|
D|----------------|---------------|--------------|
A|----------------|---------------|---3------4---|
D|-7-8-7-11-7-8-7-|-5-7-5-8-7-5-3-|-3---2--2---2-|

G|--------------------------|------------------------|
D|-12-0-11--7-b7--5-0-3-2-1-|------------------------|
A|--------------------------|--5-0-3-1-0-------------|
D|--------------------------|-------------5-0-3-2-1--|

G|-----------------------|--------------------------|
D|-----------------------|-0-0-2-3--6-0-7-10-11-12--|
A|-----------------------|--------------------------|
D|-0-0-2-3-5--6-0-7-8-11-|--------------------------|

(Start a little bit before "I'm gonna make you...")
G|----------------------------------|
D|----------------------------------|
A|----------------------------------|
E|-0-0-0-0-0--0-0-0-0-0--0-0-0-0-0--| 

[Chorus 3]
G|-------------------------|----------------|
D|-------------------------|----------------|
A|-------------------------|----------------|
D|-0-3-0-5-0-3-0-0-3-0-5/6-|-0-3-0-5-0-3-0--|

G|-------------------------|----------------------------|----------------|
D|-------------------------|----------------------------|----------------|
A|-------------------------|----------------------------|----------------|
D|-0-3-0-5-0-3-0-0-3-0-5/6-|-0-3-0-5-0-3-0--0-4-0-5-6-0-|-7-8-7-11-7-8-7-|

G|----------------|---------------|--------------|
D|----------------|---------------|--------------|
A|----------------|---------------|---3------4---|
D|-7-8-7-11-7-8-7-|-5-7-5-8-7-5-3-|-3---2--2---2-|

[Bridge] (The guitar plays the main riff so play this when the main riff reaches the "5/6" part) 
G|----------|
D|----------|
A|----------|
D|-5/6--5/6-|

G|------------------------------------|---------------------------------------|
D|-12-12-12-12-12-12-12-12-12-12-12-12|-12-12-12-12-12-12-12-12-12--12/-------|
A|------------------------------------|---------------------------------------|
D|------------------------------------|---------------------------------------|

G|-------------------------|--------------------------------------------------|
D|-------------------------|--------------------------------------------------|
A|-------------------------|--------------------------------------------------|
D|-0-3-0-5-0-3-0-0-3-0-5/6-|-0-3-0-5-0-3-0-0-3-0-8-8--0-3-0-5-0-3-0-0-3-0-7-7-|

G|-------------------------|-------------------------|
D|-------------------------|-------------------------|
A|-------------------------|-------------------------|
D|-0-3-0-5-0-3-0-0-3-0-8-8-|-0-3-0-5-0-3-0-0-3-0-7-7-|

G|-------------------------|----------------------------|
D|-------------------------|----------------------------|
A|---------------------3-3-|----------------------------|
D|-0-3-0-5-0-3-0-0-3-0-----|-0-3-0-5-0-3-0--0-4-0-5-6-0-|

G|-------------------------|------------------------------|
D|-------------------------|------------------------------|
A|-------------------------|------------------------------|
D|-7-8-7-11-7-8-7--7-8(x2)-|-5-7-5-8-5-7-5--5-7-5-8-5-7-5-|

G|-------------------------|--------------------|
D|-------------------------|--------------------|
A|-------------------------|--------------------|
D|-7-8-7-11-7-8-7--7-8(x2)-|-5-7-5-8-7-5--3-0-2-|

[Outro]
G|--------------------------|----------------------------|
D|-12-0-11--7-b7--5-0-3-2-1-|----------------------------|
A|--------------------------|-5-0-3-1-0------------------|
D|--------------------------|------------5-0-3-2-1---0~--|
                (Gradually slow down here ^)
            
Submit corrections



        Psycho  lessons Hard to play? Try these video lessons and learn fast Psycho  lessons
        
↑ Back to top | Tablatures and chords for acoustic guitar and electric guitar, ukulele, drums are parodies/interpretations of the original songs. You may use it for private study, scholarship, research or language learning purposes only