» » »

Muse - Map Of Your Head Tabs

Artists:  A B C D E F G H I J K L M N O P Q R S T U V W X Y Z # 

Map Of Your Head Tabs

(ver. 2) Click to play this song!
Muse
 Rating:
4/5 (4 votes)
                
Riff Played for whole song
e--------------------7- 
B----------------7-7-5- 
G---6-6-----6----7-7-7- 
D---7-7---7------7-7--- 
A---0-0-0------5------- 
E-5-------------------- x2 

then 
e----------------------------------------------7- 
B----------------9-9----------2-2----------7-7-5- 
G---6-6-----6----9---9---9----2---2---2----7-7-7- 
D---7-7---7------9-----9------4-----4------7-7--- 
A---0-0-0------7-7------------4----------5------- 
E-5-------------------------2--------------------
            
Submit corrections

↑ Back to top | Tablatures and chords for acoustic guitar and electric guitar, ukulele, drums are parodies/interpretations of the original songs. You may use it for private study, scholarship, research or language learning purposes only