» » »

Muse - Tabs

Artists:  A B C D E F G H I J K L M N O P Q R S T U V W X Y Z # 

Tabs

(ver. 12) Click to play this song!
Muse
 Rating:
4.3/5 (10 votes)


  lessons Tabs too difficult? Try these video lessons and learn fast
 
                
e|------------------------------||
B|------------------------------||
G|------------------------------||
D|------------------------------|| x2
A|------------------------------||
E|-0----2---3------5--5----7----||

Tremolo Picked

e|--------------------------------------------------|
B|--------------------------------------------------|
G|--------------------------------------------------|
D|--------------------------------------------------| x2
A|-7---5-7-9---7-9-10---9-10-12--10-9-10-9-7-6------|
E|--------------------------------------------------|

e|------------------|
B|------------------|
G|------------------|
D|------------------|
A|------------------|
E|-19/////////////0-|

Heavy Vibrato

e|---------------------------------------|----------------------------------------|
B|---------------------------------------|----------------------------------------|
G|---------------------------------------|----------------------------------------|
D|---------------------------------------|----------------------------------------|
A|-10---9--7--5-----7--9--10----9--7--5--|-6----7--9--7---10--12--13----12--13--14|
E|---------------------------------------|----------------------------------------|

e|----------------|----------------|-------------------------------------------|
B|----------------|----------------|-------------------------------------------|
G|----------------|----------------|-------------------------------------------|
D|-13---10------12|-13---12--10--8-|-12---10--8--10---8--6--8-----9----10-12-10|
A|----------10----|----------------|-------------------------------------------|
E|----------------|----------------|-------------------------------------------|

All Tremolo Picked

e|-----------------|-------------------------|-----------------|----------------------------|
B|-----------------|-------------------------|-----------------|----------------------------|
G|-16---15--13--11-|-13--15--16---15--13--11-|-12---13--15--13-|-16--18--19---18--19--20----|
D|-----------------|-------------------------|-----------------|----------------------------|
A|-----------------|-------------------------|-----------------|----------------------------|
E|-----------------|-------------------------|-----------------|----------------------------|

e|-19--16-----18---|-19--18-16-14---|--18--16-14-16--|-14-12-14---15---16----|
B|---------16------|----------------|----------------|-----------------------|
G|-----------------|----------------|----------------|-----------------------|
D|-----------------|----------------|----------------|-----------------------|
A|-----------------|----------------|----------------|-----------------------|
E|-----------------|----------------|----------------|-----------------------|

Guitar transition to verse. (w/Delay and Reverb)

e|-----------------------------|
B|-----------------------------|
G|-----------------------------|
D|-9--9-9-9-11-11-11-9-8-8-----|
A|-----------------------------|
E|-----------------------------|

Lightly

e|--4--|--7--|-----|--7--|-----|-----|--3--|--7--|
B|--4--|--7--|--9--|--7--|--8--|--9--|--3--|--7--|
G|--4--|--8--|--9--|--8--|--8--|--9--|--4--|--8--|
D|--6--|--9--|--9--|--9--|--8--|--9--|--5--|--9--|
A|--6--|--9--|--7--|--9--|--6--|--7--|--5--|--9--|
E|--4--|--7--|-----|--7--|-----|-----|--3--|--7--|

e|-7--------|-7--------|-----8----|--7--|--7--|--8--|--7--|--7--|--7--|
B|---8------|---7------|---8------|--8--|--7--|--8--|--8--|--7--|--8--|
G|-----9----|-----8----|-9--------|--7--|--8--|--9--|--7--|--8--|--9--|
D|----------|----------|----------|--9--|--9--|--10-|--9--|--9--|--9--|
A|----------|----------|----------|-----|-----|-----|-----|-----|-----|
E|----------|----------|----------|-----|-----|-----|-----|-----|-----|

w/distortion and vibrato

e|------------------------------||
B|------------------------------||
G|------------------------------||
D|------------------------------|| x2
A|------------------------------||
E|-0----2---3------5--5----7----||

Tremolo Picked

e|--------------------------------------------------|
B|--------------------------------------------------|
G|--------------------------------------------------|
D|--------------------------------------------------| x2
A|-7---5-7-9---7-9-10---9-10-12--10-9-10-9-7-6------|
E|--------------------------------------------------|

e|-20\\\\\\\\-|-------------|
B|-20\\\\\\\\-|-------------|
G|------------|-------------|
D|------------|-------------|
A|------------|-------------|
E|------------|-0-----------|

________________________

e|-----------------||
B|-5---5---5---5---||
G|--4---4---4---4--||
D|---2---2---2---2-|| x2
A|-----------------||
E|-----------------||

e|-----------------||
B|-3---3---3---3---||
G|--4---4---4---4--||
D|---4---4---4---4-|| x2
A|-----------------||
E|-----------------||

e|-----------------||
B|-2---2---2---2---||
G|--2---2---2---2--||
D|---2---2---2---2-|| x2
A|-----------------||
E|-----------------||

Repeat
________________________

e|-----------------||
B|-5---5---5---5---||
G|--4---4---4---4--||
D|---2---2---2---2-|| 
A|-----------------||
E|-----------------||

e|---------------||
B|-5-5-5-5-5-5-5-||
G|-4-4-4-4-4-4-4-||
D|-2-2-2-2-2-2-2-|| 
A|---------------||
E|---------------||

Refrain

e|-------------------------------------------|
B|-------------------------------------------|
G|-------------------------------------------|
D|-------------------------------------------|
A|-5h7-7-7--5h7-7-7--5h7-7-7-7--5h7p5p0-10p7-|
E|-------------------------------------------|

e|--------------------------------------------------|
B|--------------------------------------------------|
G|--------------------------------------------------|
D|--------------------------------------------------|
A|--------------------------------------------------|
E|10-10p7-7-7---7-10p7-7-7----7-10p7-7-7----7-10p7-0|

e|-------------------------------------------------|
B|-------------------------------------------------|
G|-------------------------------------------------|
D|-------------------------------------------------|
A|5h7-7-7p0-0-0---0-7p0-0-0--0-7p0-0-0--0-7p0-0-2p0|
E|-------------------------------------------------|

e|--------------------------------------------------|
B|--------------------------------------------------|
G|--------------------------------------------------|
D|--------------------------------------------------|
A|--------------------------------------------------|
E|3-3p0-0-0---0-3p0-0-0----0-3p0-0-0---0-3p0-0-5h7-0|

Repeat x6

e|--------------------------------------------------|
B|--------------------------------------------------|
G|--------------------------------------------------|
D|--------------------------------------------------| x2
A|---------------------------------------------0h1h2|
E|3-3p0-0-0---0-3p0-0-0----0-3p0-0-0---0-3p0-0------|

e|----------------------------------------------|
B|----------------------------------------------|
G|----------------------------------------------|
D|----------------------------------------------|
A|---------------------------------5h7-7-5h7-7--|
E|-3p0-0-0-0--3p0-0-0-0--3p0-0-0-0--------------|

e|-------------|
B|-------------|
G|-------------|
D|-------------|
A|-2-----------|
E|-0-----------|

Feel Free to Solo During Repeats or:

Optional Solo w/ heavy Reverb
e|-12----------------10--------9----7--5h7p5----3--------|
B|-------12----------------------------------------------|
G|-------------12----------------------------------------|
D|-------------------------------------------------------| x 2
A|-------------------------------------------------------|
E|-------------------------------------------------------|
Optional Tremolo Pick            
Submit corrections



         lessons Hard to play? Try these video lessons and learn fast  lessons
        
↑ Back to top | Tablatures and chords for acoustic guitar and electric guitar, ukulele, drums are parodies/interpretations of the original songs. You may use it for private study, scholarship, research or language learning purposes only