Home » M » Muse »

Muse - Aftermath Tabs

Artists:  A B C D E F G H I J K L M N O P Q R S T U V W X Y Z # 

Aftermath Tabs

(ver. 1) Click to play this song!
Muse
 Rating:
2.3/5 (23 votes)
                Tuning: Standard

Chords: F#m E Bm D E

                                                          (vol. swell)
e|---------------------------------------------------------------------------|
B|---------------------------------------------------------------------------|
G|---------------------------------------------2h4/9-----------^7------------|
D|-----2h4-4---------------2h4b6r4p2-4---------------------------------------|
A|--s4-------------------4---------------------------------------------------|
E|---------------------------------------------------------------------------|


 (vol. swell)
e|---------------------------------------------------------------------------|
B|---------------------------------------------------------------------------|
G|--^6b7r6p4\2-2—2h4p2------------------2-----2h4p2--------1-----1h2p1-------|
D|---------------------/6---------------4---4--------------2---2-------2-----|
A|--------------------------------------4------------------2-----------------|
E|----------------------------------2-----------------2\0--------------------|

e|---------------------------------------------------------------------------|
B|---------------------------------------------------------------------------|
G|------7-----7--7-----------------------------------------------------------|
D|------9-----9--9-----------12--12-----------14-----------------------------|
A|------9-----9--9-----------12--12-----------14-----------------------------|
E|--/7------7--------7--/10---------10/12-12---------------------------------|

e|---------------------------------------------+7----------------------------|
B|-----------2---2-----------------------------------------------------------|
G|-----2-----4b6-4-2h4p2-----------------------------------------------------|
D|-----4-----------------4p2-------------------------------------------------|
A|-----4---------------------------------------------------------------------|
E|--2------2-----------------------------------------------------------------|

e|---------------------------------------------------------------------------|
B|---------------------------------------------------------------------------|
G|------7-----7h9p7----------------7--7--------9-----------------------------|
D|------9-----7-----9p7-9p7--------7--7--------9-----------------------------|
A|------9-------------------9---/5-------5/7-7-------------------------------|
E|--/7------7----------------------------------------------------------------|            
Submit corrections

↑ Back to top | Tablatures and chords for acoustic guitar and electric guitar, ukulele, drums are parodies/interpretations of the original songs. You may use it for private study, scholarship, research or language learning purposes only