Home » M » Motorhead »

Motorhead - Louie Louie Bass

Artists:  A B C D E F G H I J K L M N O P Q R S T U V W X Y Z # 

Louie Louie Bass

(ver. 3) Click to play this song!
Motorhead
 Rating:
4/5 (4 votes)
                Standard tunning: EADC

Chorus
(A really Louie, oh babe...)
G|------99-------99-|
D|-999--77-------77-|
A|-777------999-----|
E|----------777-----|

Verse
G|----------------------|
D|-----14--16|16|16--14-|
A|-14--12--14|14|14--12-|
E|-12-------------------|

Brake between Verse and Chorus
G|------------|
D|-14--12--11-|
A|-12--10--9--|
E|------------|

Just sit down with your bass guitar on your lap and figure out how it fits into the 
please rate
            
Submit corrections

↑ Back to top | Tablatures and chords for acoustic guitar and electric guitar, ukulele, drums are parodies/interpretations of the original songs. You may use it for private study, scholarship, research or language learning purposes only