» » »

Motorhead - We Are The Road Crew Tabs

Artists:  A B C D E F G H I J K L M N O P Q R S T U V W X Y Z # 

We Are The Road Crew Tabs

(ver. 1) Click to play this song!
Motorhead
 Rating:
4.2/5 (5 votes)

 We Are The Road Crew lessons Tabs too difficult? Try these video lessons and learn fast
 
                Intro X2
---------------------
---------------------
---9-----7-----------
---7-----5---------5-
----------------0--3-
---------------------

-----------------------------------------------------------
-----------------------------------------------------------
---9-----7------------------------------------------5------
---7-----5---------5----7----------------5---7-----------7-
----------------0--3----5-------5---7----------------------
-----------------------------------------------------------

Verse:
"Another town, another place, another girl, another face, another truce, another race"
-2-2-2-2-2-2-2-2-2-2-2-2-2-2-2-2-2-2-2-2-2-2-2-2-2-2-2-2-2-2-2-2-2-2-2-2-2-2-2-2-2-2--
-0-0-0-0-0-0-0-0-0-0-0-0-0-0-0-0-0-0-0-0-0-0-0-0-0-0-0-0-0-0-0-0-0-0-0-0-0-0-0-0-0-0--

------------------
------------------
------------------
------------------
-5-5-5---3-3-3----
-3-3-3---1-1-1----

"I'm eating junk, feeling bad, another night, I'm going mad, my woman's leaving, I feel bad"
-2-2-2-2-2-2-2-2-2-2-2-2-2-2-2-2-2-2-2-2-2-2-2-2-2-2-2-2-2-2-2-2-2-2-2-2-2-2-2-2-2-2--
-0-0-0-0-0-0-0-0-0-0-0-0-0-0-0-0-0-0-0-0-0-0-0-0-0-0-0-0-0-0-0-0-0-0-0-0-0-0-0-0-0-0--

------------------
------------------
------------------
------------------
-5-5-5---3-3-3----
-3-3-3---1-1-1----

"But I just love the life I need, another beer is what I need, another gig my ears bleed"
-2-2-2-2-2-2-2-2-2-2-2-2-2-2-2-2-2-2-2-2-2-2-2-2-2-2-2-2-2-2-2-2-2-2-2-2-2-2-2-2-2-2--
-0-0-0-0-0-0-0-0-0-0-0-0-0-0-0-0-0-0-0-0-0-0-0-0-0-0-0-0-0-0-0-0-0-0-0-0-0-0-0-0-0-0--

------------------
------------------
------------------
------------------
-5-5-5---3-3-3----
-3-3-3---1-1-1----

Chorus:
   "We are the road crew"
-----------------------------------------------------------
-----------------------------------------------------------
---9-----7------------------------------------------5------
---7-----5---------5----7----------------5---7-----------7-
----------------0--3----5-------5---7----------------------
-----------------------------------------------------------


Background for solo 1:
-2-2-2-2-2-2-2-2-2-2-2-2-2-2-2-2-2-2-2-2-2-2-2-2-2-2-2-2-2-2-2-2-2-2-2-2-2-2-2-2-2-2--
-0-0-0-0-0-0-0-0-0-0-0-0-0-0-0-0-0-0-0-0-0-0-0-0-0-0-0-0-0-0-0-0-0-0-0-0-0-0-0-0-0-0--

------------------
------------------
------------------
------------------
-5-5-5---3-3-3----
-3-3-3---1-1-1----


Background for solo 2:

-----------------------------
-----------------------------
-----------------------------
-2-2-2-2-2-2-2-2-2-2-2-2-2-2-
-0-0-0-0-0-0-0-0-0-0-0-0-0-0-
-----------------------------

------------------
------------------
------------------
------------------
-5-5-5---3-3-3----
-3-3-3---1-1-1----
            
Submit corrections


        We Are The Road Crew lessons Hard to play? Try these video lessons and learn fast We Are The Road Crew lessons
        
↑ Back to top | Tablatures and chords for acoustic guitar and electric guitar, ukulele, drums are parodies/interpretations of the original songs. You may use it for private study, scholarship, research or language learning purposes only